Oops, an error
Loading. Please wait.

Talon bass

version 1
version 1

Whole song

Interactive

by Pupil
70 views 1 this week
no commentswrite comment
1 2 3 4 5
3 more votes to show rating
add to favorites
×
Save as Personal and add changes to this tab that will be seen only by you. Learn more ›
×
You can save this tab as Personal to edit and correct it or add notes. All changes will be seen only by you. Learn more »
launch autoscroll
font size
0
reset
guitar tuner
edit
Autoscroll
slow
fast
+/-
esc
set tempo
stop
Difficulty
"Talon" by Pupil
from the album Wildlife
Bass tab
Standard tuning (EADG)

Not 100% correct, but still sounds all right, I think.
I also translated the solo for the bass, but you can
opt to play the chorus instead of the solo if you want.
Hehe.

Intro:
G--------------------|
D--------------------|
A--------------------|
E-33333333-777-00000-| (x4)

Verse A:
G------------------|
D------------------|
A------------7-----|
E-3333\-----0-0-00-| (x1)

Verse B:
G-----------------|
D-----------------|
A-----------7-----|
E-333\-----0-0-00-| (x3)

Repeat Intro x4

Chorus A:
G------------------------------------------|
D------------------------------------------|
A-33333333-55555555------------------------|
E------------------00-33-77-33-00-33-77-33-| (x2)

Chorus B:
G------------|
D------------|
A-33333333-5~|
E------------| (x1)

Repeat Intro x2

Repeat Verse A x1
Repeat Verse B x3
Repeat Intro x4

Repeat Chorus A x3
Repeat Chorus B x1

Solo A:
G---------------------------------------------|
D---------------------------------------------|
A-22-00--00-22-5-22222-55-22-00-22-55-7-55555-|
E------33-------------------------------------| (x2)

Solo B:
G------------------------------|
D------------------------------|
A-777-1010101010---------------|
E---------------777-1010101010-| (x2)
(^those are tens, not zeroes and ones)

Solo C:
G------------------------------------------------------|
D------------------------------------------------------|
A-777-1010101010---------------------------------------|
E---------------777-101010-77-555-777-55-333-555-77-10-| (x1)
(^those are tens, not zeroes and ones)

Rest

Repeat Chorus A x5

Ending:
G---------|
D---------|
A-3~-5~---|
E------0~-|

            
            
Suggest correction
Creating personal tab
Creating personal tab
You can edit any tab online and save it as your Personal.

You can edit, replace or remove any tab part or add personal notes – all changes will be seen only by you.

Personal tabs can be accessed anytime from any device, even offline.
Learn more »
Give kudos to tab author, rate the tab!
1 2 3 4 5
comments
print report bad tab
guest
Wanna post a correction for this tab? Suggest correction