Oops, an error
Loading. Please wait.

Talon Tab

version 1
version 1

Whole song

Interactive

309 views 3 this week
no commentswrite comment
1 2 3 4 5
please rate
add to favorites
launch autoscroll
font size
0
reset
how to read this tab
guitar tuner
Autoscroll
slow
fast
+/-
esc
set tempo
stop
Help us to improve Ultimate-Guitar.com Take our survey!
×
Contributor
Difficulty
intermediate
artist:pupil
album:wildlife
song:talon


legend:
   ~ - let it ring
   X - dead string
Intro:
 gtr 1:
   e|----------------------------------|
   B|----------------------------------|
   G|----------------------------------|
   D|--555555--222222--555555--222222--|
   A|--555555--222222--555555--222222--|
   E|--333333--XXXXXX--333333--XXXXXX--|

 gtr 2:
   e|----------------------------------|
   B|----------------------------------|
   G|----------------------------------|
   D|--5~-4~-555-4-5-4~----------------| (4x)
   A|----------------------------------|
   E|----------------------------------|

Verse:
 gtr 1:
   e|-------------------|
   B|-------------------|
   G|-------------------|
   D|--55555--22222-----| (repeat 8X)
   A|--55555--22222-----|
   E|--33333--XXXXX-----|

 gtr 2:
   e|-------------------------------|
   B|--8888888888/15151515151515----|
   G|-------------------------------|
   D|-------------------------------|
   A|-------------------------------|
   E|-------------------------------|
      "talon na..."

 gtr 2:
   e|-------------------------------|
   B|-11--9--7--9--12--15--12-------|
   G|-------------------------------|
   D|-------------------------------| (repeat 4x)
   A|-------------------------------|
   E|-------------------------------|
      "wag kang mabigla..."

Chorus:
   e|------------------------------|
   B|------------------------------|
   G|--55555--77777--99999---------|
   D|--55555--77777--99999--55555--| (2x)
   A|--33333--55555--77777--55555--|
   E|-----------------------33333--|
       "tumingin ka ng pailalim..."

   e|------------------------------|
   B|------------------------------|
   G|--55555--7~-------------------|
   D|--55555--7~-------------------|
   A|--33333--5~-------------------|
   E|------------------------------|
      "sino bang may hawak..."

repeat intro(2x only instead of 4x)
repeat verse
Chorus:
   e|------------------------------|
   B|------------------------------|
   G|--55555--77777--99999---------|
   D|--55555--77777--99999--55555--| (3x)
   A|--33333--55555--77777--55555--|
   E|-----------------------33333--|

   e|------------------|
   B|------------------|
   G|--55555--7~-------|
   D|--55555--7~-------|
   A|--33333--5~-------|
   E|------------------|

Bridge:
 gtr 2:
   e|-----------------------------------------------------------|
   B|--11--9--7--9--12--15--12~----14--12--10--12--15--17--15~--|
   G|-----------------------------------------------------------|
   D|-----------------------------------------------------------| (2x)
   A|-----------------------------------------------------------|
   E|-----------------------------------------------------------|

continued...

   e|--121212--151515--777--101010--121212--151515--777--101010-|
   B|-----------------------------------------------------------|
   G|-----------------------------------------------------------|
   D|-----------------------------------------------------------|
   A|-----------------------------------------------------------|
   E|-----------------------------------------------------------|

continued...

   e|--777--555--777--555--333--555--3~------|
   B|----------------------------------------|
   G|----------------------------------------|
   D|----------------------------------------|
   A|----------------------------------------|
   E|----------------------------------------|

repeat Chorus again...

____________________________________________________________________________

   maganda po itong song na ito...singer yata dito ay c yan yuzon...sya yata
ang guitar 1 dito tapos c ely guitar 2...paki rate na lang...mag-comment na
din kayo...
____________________________________________________________________________

Mabuhay Philippines!XD
comments
We did not receive enough feedback on this tab! Please rate:
print report bad tab
1 2 3 4 5
I want to post or [tab]
guest
You may want to rate the tab now too:
select rating
Please do not post tabs as comments. Select "correction" instead!