Oops, an error
Loading. Please wait.

Arabella tab

by Puppy
139 views 21 this week
no commentswrite comment
1 2 3 4 5
3 more votes to show rating
add to favorites
×
Save as Personal and add changes to this tab that will be seen only by you. Learn more ›
×
You can save this tab as Personal to edit and correct it or add notes. All changes will be seen only by you. Learn more »
launch autoscroll
font size
0
reset
how to read this tab
guitar tuner
edit
Autoscroll
slow
fast
+/-
esc
set tempo
stop
This tab was transcribed entirely by ear by myself, using what few footage exists of them performing this 
song as a guide. So not everything may be 100% accurate. However, I think this comes pretty close. 
The studio recording is in Half Step Down tuning, although they perform this song in Whole Step Down tuning 
(DGCFAD), live.

[Intro]
(Rhythm)
eb|------------------|------------------------|------------------|---------------|------------|
Bb|------------------|------------------------|------------------|---------------|------------|
Gb|------------------|------------------------|------------------|---------------|-(feedback)-|
Db|------------------|---------------5-4-2----|------------------|---------------|------------|
Ab|-----------3/5\3--|-----------5---------5--|-----------3/5\3--|-----------5~~-|------------|
Eb|--0--0-2-3--------|--3--3-5-7--------------|--0--0-2-3--------|--3--3-5-7-----|------------|

(Rhythm)
eb|-------------------|---------------------------|-------------------|-------------------------|-----|
Bb|-------------------|---------------------------|-------------------|-------------------------|-----|
Gb|-------------------|---------------12-11-9-7---|-------------------|---------------12-11-9-7-|-----|
Db|--2--2------5/7\5--|-----------7---12-11-9-7---|--2--2------5/7\5--|-----------7---12-11-9-7-|--2~-|
Ab|--2--2-4-5--3/5\3--|--5--5-7-9-5---10--9-7-5---|--2--2-4-5--3/5\3--|--5--5-7-9-5---10--9-7-5-|--2~-|
Eb|--0--0-2-3---------|--3--3-5-7-----------------|--0--0-2-3---------|--3--3-5-7---------------|--0~-|
  
(Lead)
eb|-------------------|---------------------------|-------------------|-----------2---3--2--0---|-----|
Bb|------------1/3\1--|--0--0-1-0-----------------|------------1/3\1--|--0--0-1-3-------------3-|--5~-|
Gb|--0--0-2-4---------|-----------2----4--2-0-----|--0--0-2-4---------|-------------------------|-----|
Db|-------------------|-----------------------4---|-------------------|-------------------------|-----|
Ab|-------------------|---------------------------|-------------------|-------------------------|-----|
Eb|-------------------|---------------------------|-------------------|-------------------------|-----|

[Verse] 
eb|--0-----2--3--|--7-------7--|--7-------------|-----------|
Bb|--5-----------|----7-----7--|--8--8----------|-----------|
Gb|-----4--------|-------8-----|-------7--7--7--|--8-----7--|
Db|--------------|-------9-----|----------5--7--|-----------| (x2)
Ab|--------------|-------------|----------------|-----9-----|
Eb|--------------|-------------|----------------|--7--7--7--|

[Prechorus]
(Rhythm)
eb|----------------|--------------|------------|---------|
Bb|----------------|--------------|------------|---------|
Gb|---9--9--12--9--|--7--------0--|--5~--0--2--|--4~--4--|
Db|--10------------|--9-----9-----|--1~--1--1--|--5~--5--|
Ab|--10------------|--9--9--------|------------|--2~--2--|
Eb|----------------|--------------|------------|--3~--3--|

eb|----------------|--------------7~-|------------------|-------------------|
Bb|----------------|----------10~----|------------------|-------------------|
Gb|---9--9--12--9--|--7\8------------|------------------|-------------------|
Db|--10------------|-------9~--------|--10--10--10--10--|--9-9-9-9-9-9-9-9--|
Ab|--10------------|-----------------|--10--10--10--10--|--9-9-9-9-9-9-9-9--|
Eb|----------------|-----------------|---8---8---8---8--|--7-7-7-7-7-7-7-7--|
                                                        PM..................

[Chorus]
(Rhythm)
eb|----------------|---------|--------------|---------|
Bb|----------------|---------|--------------|---------|
Gb|--9-------9-----|--7------|--5---5--5--5-|--4------| (x4)
Db|--5---5-5-5-5-5-|--7---4--|--5---5--5--5-|--5---4--|
Ab|--7---7-7-7-7-7-|--5---5--|--3---3--3--3-|--5---5--|
Eb|--0---0-0-0-0-0-|---------|--------------|---------|
       PM..........
  
[Post Chorus]
(Rhythm)
eb|-------------------|---------------------------|-------------------|-------------------------|-----|
Bb|-------------------|---------------------------|-------------------|-------------------------|-----|
Gb|-------------------|---------------12-11-9-7---|-------------------|---------------12-11-9-7-|-----|
Db|--2--2------5/7\5--|-----------7---12-11-9-7---|--2--2------5/7\5--|-----------7---12-11-9-7-|--2~-|
Ab|--2--2-4-5--3/5\3--|--5--5-7-9-5---10--9-7-5---|--2--2-4-5--3/5\3--|--5--5-7-9-5---10--9-7-5-|--2~-|
Eb|--0--0-2-3---------|--3--3-5-7-----------------|--0--0-2-3---------|--3--3-5-7---------------|--0~-|

(Lead)
eb|-------------------|---------------------------|-------------------|-----------2---3--2--0---|-----|
Bb|------------1/3\1--|--0--0-1-0-----------------|------------1/3\1--|--0--0-1-3-------------3-|--5~-|
Gb|--0--0-2-4---------|-----------2----4--2-0-----|--0--0-2-4---------|-------------------------|-----|
Db|-------------------|-----------------------4---|-------------------|-------------------------|-----|
Ab|-------------------|---------------------------|-------------------|-------------------------|-----|
Eb|-------------------|---------------------------|-------------------|-------------------------|-----|

[Verse] 
eb|--0-----2--3--|--7-------7--|--7-------------|-----------|
Bb|--5-----------|----7-----7--|--8--8----------|-----------|
Gb|-----4--------|-------8-----|-------7--7--7--|--8-----7--|
Db|--------------|-------9-----|----------5--7--|-----------| (x2)
Ab|--------------|-------------|----------------|-----9-----|
Eb|--------------|-------------|----------------|--7--7--7--|

[Prechorus]
(Rhythm)
eb|----------------|--------------|------------|---------|
Bb|----------------|--------------|------------|---------|
Gb|---9--9--12--9--|--7--------0--|--5~--0--2--|--4~--4--|
Db|--10------------|--9-----9-----|--1~--1--1--|--5~--5--|
Ab|--10------------|--9--9--------|------------|--2~--2--|
Eb|----------------|--------------|------------|--3~--3--|

eb|----------------|--------------7~-|------------------|-------------------|
Bb|----------------|----------10~----|------------------|-------------------|
Gb|---9--9--12--9--|--7\8------------|------------------|-------------------|
Db|--10------------|-------9~--------|--10--10--10--10--|--9-9-9-9-9-9-9-9--|
Ab|--10------------|-----------------|--10--10--10--10--|--9-9-9-9-9-9-9-9--|
Eb|----------------|-----------------|---8---8---8---8--|--7-7-7-7-7-7-7-7--|
                                     PM............     PM..................

[Chorus]
(Rhythm)
eb|----------------|---------|--------------|---------|
Bb|----------------|---------|--------------|---------|
Gb|--9-------9-----|--7------|--5---5--5--5-|--4------| (x4)
Db|--5---5-5-5-5-5-|--7---4--|--5---5--5--5-|--5---4--|
Ab|--7---7-7-7-7-7-|--5---5--|--3---3--3--3-|--5---5--|
Eb|--0---0-0-0-0-0-|---------|--------------|---------|
       PM............

[Bridge]
(Rhythm)
eb|-------------|---------------|-------------|----------------|
Bb|-------------|---------------|-------------|----------------|
Gb|----------9--|----------9-7--|---------12--|---------14-16--|
Db|----------9--|----------9-7--|---------12--|---------14-16--|
Ab|----------7--|----------7-5--|---------10--|---------12-14--|
Eb|--0-0-0-0----|--0-0-0-0------|--0-0-0-0----|--0-0-0-0-------|
  PM.......     PM........      PM........    PM........

(Rhythm)
eb|-------------|-----------------|-------------|----------------|
Bb|-------------|-----------------|-------------|----------------|
Gb|----------9--|----------9-8-7--|---------12--|---------14-16--|
Db|----------9--|----------9-8-7--|---------12--|---------14-16--|
Ab|----------7--|----------7-6-5--|---------10--|---------12-14--|
Eb|--0-0-0-0----|--0-0-0-0--------|--0-0-0-0----|--0-0-0-0-------|
  PM.......     PM........      PM........    PM........

[Prechorus]
(Rhythm)
eb|----------------|--------------|------------|---------|
Bb|----------------|--------------|------------|---------|
Gb|---9--9--12--9--|--7--------0--|--5~--0--2--|--4~--4--|
Db|--10------------|--9-----9-----|--1~--1--1--|--5~--5--|
Ab|--10------------|--9--9--------|------------|--2~--2--|
Eb|----------------|--------------|------------|--3~--3--|

eb|----------------|--------------7~-|------------------|--------------|
Bb|----------------|----------10~----|------------------|--------------|
Gb|---9--9--12--9--|--7\8------------|------------------|--------------|
Db|--10------------|-------9~--------|--10--10--10--10--|--9-9-9-9-9---|
Ab|--10------------|-----------------|--10--10--10--10--|--9-9-9-9-9---|
Eb|----------------|-----------------|---8---8---8---8--|--7-7-7-7-7---|
                                     PM...............    PM........

[Chorus/Outro]
(Rhythm)
eb|----------------|---------|--------------|---------|
Bb|----------------|---------|--------------|---------|
Gb|--9-------9-----|--7------|--5---5--5--5-|--4------| (x4)
Db|--5---5-5-5-5-5-|--7---4--|--5---5--5--5-|--5---4--|
Ab|--7---7-7-7-7-7-|--5---5--|--3---3--3--3-|--5---5--|
Eb|--0---0-0-0-0-0-|---------|--------------|---------|
       PM............

Then end on
(Rhythm)
eb|-----------------|
Bb|-----------------|
Gb|------(feedback)-|
Db|--2~~------------|
Ab|--2~~------------|
Eb|--0~~------------|


************************************

| /\  - slide
| pm - palm mute
| b  - bend
| p  - pull off
| ~  - let ring
| h  - hammer on
| x  - fret hand muting

************************************

            
            
Suggest correction
Creating personal tab
Creating personal tab
You can edit any tab online and save it as your Personal.

You can edit, replace or remove any tab part or add personal notes – all changes will be seen only by you.

Personal tabs can be accessed anytime from any device, even offline.
Learn more »
Give kudos to tab author, rate the tab!
1 2 3 4 5
comments
print report bad tab
guest
You may want to rate the tab now too:
select rating
Wanna post a correction for this tab? Suggest correction