Oops, an error
Loading. Please wait.

Do It Again tab

by Puppy
4 views 1 this week
no commentswrite comment
1 2 3 4 5
3 more votes to show rating
add to favorites
×
Save as Personal and add changes to this tab that will be seen only by you. Learn more ›
×
You can save this tab as Personal to edit and correct it or add notes. All changes will be seen only by you. Learn more »
launch autoscroll
font size
0
reset
how to read this tab
guitar tuner
edit
Autoscroll
slow
fast
+/-
esc
set tempo
stop
This tab was transcribed entirely by ear by myself, using what few footage exists of them performing this
song as a guide. So not everything may be 100% accurate. However, I think this comes pretty close.
This song is in Whole Step Down tuning (DGCFAD)

[Intro]
(Rhythm)
D|---------------------|-----|-------------------|-------------|
A|---------------------|-----|-------------------|-------------|
F|--7------------------|--5--|--5----------------|--7----------|
C|--7-(let ring)-------|--5--|--5-(let ring)-----|--7----8--7--|
G|--5------------------|--3--|--3----------------|--5----8--7--|
D|---------------------|-----|-------------------|-------6--5--|
 |
(Lead)
D|---------------------|-----|-------------------|-------------|
A|---------------------|-----|-------------------|-------------|
F|--7-------7-9-10/12--|--5--|--5-------5-7-9-5--|--7----7--7--|
C|------7-7------------|-----|------5-5----------|-------------|
G|---------------------|-----|-------------------|-------------|
D|---------------------|-----|-------------------|-------------|

(Rhythm)
D|---------------------|-----|-------------------|----------------|
A|---------------------|-----|-------------------|----------------|
F|--7------------------|--5--|--2----------------|--7----X-X------|
C|--7-(let ring)-------|--5--|--2-(let ring)-----|--7----X-X------|
G|--5------------------|--3--|--0----------------|--5----X-X------|
D|---------------------|-----|-------------------|-----------17\--|
 |
(Lead)
D|---------------------|-----|-------------------|----------------|
A|---------------------|-----|-------------------|----------------|
F|--7-------7-9-10/12--|--5--|--6-------6-7-9-6--|--7-------------|
C|------7-7------------|-----|------7-7----------|----------------|
G|---------------------|-----|-------------------|-----------12\--|
D|---------------------|-----|-------------------|----------------|

(Lead 1)
D|---------------------|-----|----------------------|------|
A|--6-------6-8-10/11--|-----|----------------------|------|
F|---------------------|--9--|--9--------9-10-12-9--|--10--|
C|------7-7------------|-----|----------------------|------|
G|---------------------|-----|-----10-10------------|------|
D|---------------------|-----|----------------------|------|
 |
(Lead 2)
D|---------------------|-----|----------------------|------|
A|---------------------|-----|----------------------|------|
F|--7-------7-9-10/12--|--5--|--5--------5-7--9--5--|--7---|
C|------7-7------------|-----|-----5--5-------------|------|
G|---------------------|-----|----------------------|------|
D|---------------------|-----|----------------------|------|

(Lead 1)
D|---------------------|----------8-------|----------------------|------|
A|--6-------6-8-10/11--|-----8-10---10-8--|----------------------|------|
F|---------------------|--9---------------|--9--------9-10-12-9--|--10--|
C|------7-7------------|------------------|-------7-7------------|------|
G|---------------------|------------------|----------------------|------|
D|---------------------|------------------|----------------------|------|
 |
(Lead 2)
D|---------------------|------------------|----------------------|------|
A|---------------------|------------------|----------------------|------|
F|--7-------7-9-10/12--|--5-(let ring)----|--6--------6-7--9--6--|--7---|
C|------7-7------------|------------------|-----7--7-------------|------|
G|---------------------|------------------|----------------------|------|
D|---------------------|------------------|----------------------|------|

[Verse]
D|--------------3--|-------------------------|-------------1--X-X--|-------------------|
A|--------3-----3--|-------------------------|-------------1--X-X--|-------------------|
F|------2-------0--|------0-3--0--3-2-0------|-------------2--X-X--|-------------------|
C|--0-3---------5--|----2------2--------3-2--|------3------3--X-X--|------3/5-----5/7--| x2
G|--------------5--|--3--------4-------------|----5---5------------|----1-------4------|
D|----------3------|-----------5-------------|--6-------1----------|--3-------5--------|

[Prechorus]
D|-------------------|-------------------|-------------------|-------------------|
A|-------------------|-------------------|-------------------|-------------------|
F|-------------------|-------------------|-------------------|-------------------|
C|----8-8-7-5-5-3-3--|--2-2-2-2-3-3-5-5--|--2-2-2-2-2-2-2-2--|--3-3-3-3-3-3-3-3--|
G|--5-5-5-5-5-5-5-5--|--3-3-3-3-3-3-3-3--|--4-4-4-4-4-4-4-4--|--5-5-5-5-5-5-5-5--|
D|--3-3-3-3-3-3-3-3--|--3-3-3-3-3-3-3-3--|--5-5-5-5-5-5-5-5--|--6-6-6-6-6-6-6-6--|

D|-------------------|----------------------------|
A|-------------------|----------------------------|
F|-------------------|----------------------------|
C|-------------------|--5-5-5-5-5--/7-------------|
G|--1-1-1-1-1-1-1-1--|--7-7-7-7-7------10-8-------|
D|--3-3-3-3-3-3-3-3--|--8-8-8-8-8-----------10-8--|

[Chorus]
D|-----------------|-------------------------|--------------------|---------------------------------|
A|-----------------|-------------------------|--------------------|---------------------------------|
F|--5--5-5---------|-------------------------|--------------------|-----------------------10h12p10--|
D|--7--7-7---------|------------7------------|--5---6---3--3-X-X--|--10-10--X-X-10--10h12-----------|
G|--8--8-8--10--6--|--8-8-8-3-----10-8-------|--7---8---5--5-X-X--|---8--8--X-X--8------------------|
D|-----------6--6--|--6-6-6-1----------10-8--|--8---9---6--6-X-X--|---------------------------------|

D|-----------------|-------------------------|--------------------|-----------------------|
A|-----------------|-------------------------|--------------------|-----------------------|
F|--5--5-5---------|-------------------------|--------------------|-----------------------|
D|--7--7-7---------|------------7------------|--5---6---3--3-X-X--|--12-10-----10-----10--|
G|--8--8-8--10--8--|--8-8-8-3-----10-8-------|--7---8---5--5-X-X--|---------12\-8------8--|
D|-----------6--6--|--6-6-6-1----------10-8--|--8---9---6--6-X-X--|-----------------------|

[Intro]
(Lead 1)
D|---------------------|-----|----------------------|------|
A|--6-------6-8-10/11--|-----|----------------------|------|
F|---------------------|--9--|--9--------9-10-12-9--|--10--|
C|------7-7------------|-----|----------------------|------|
G|---------------------|-----|-----10-10------------|------|
D|---------------------|-----|----------------------|------|
 |
(Lead 2)
D|---------------------|-----|----------------------|------|
A|---------------------|-----|----------------------|------|
F|--7-------7-9-10/12--|--5--|--5--------5-7--9--5--|--7---|
C|------7-7------------|-----|-----5--5-------------|------|
G|---------------------|-----|----------------------|------|
D|---------------------|-----|----------------------|------|

(Lead 1)
D|---------------------|----------8-------|----------------------|------|
A|--6-------6-8-10/11--|-----8-10---10-8--|----------------------|------|
F|---------------------|--9---------------|--9--------9-10-12-9--|--10--|
C|------7-7------------|------------------|-------7-7------------|------|
G|---------------------|------------------|----------------------|------|
D|---------------------|------------------|----------------------|------|
 |
(Lead 2)
D|---------------------|------------------|----------------------|------|
A|---------------------|------------------|----------------------|------|
F|--7-------7-9-10/12--|--5-(let ring)----|--6--------6-7--9--6--|--7---|
C|------7-7------------|------------------|-----7--7-------------|------|
G|---------------------|------------------|----------------------|------|
D|---------------------|------------------|----------------------|------|

[Verse]
D|--------------3--|-------------------------|-------------1--X-X--|-------------------|
A|--------3-----3--|-------------------------|-------------1--X-X--|-------------------|
F|------2-------0--|------0-3--0--3-2-0------|-------------2--X-X--|-------------------|
C|--0-3---------5--|----2------2--------3-2--|------3------3--X-X--|------3/5-----5/7--| x2
G|--------------5--|--3--------4-------------|----5---5------------|----1-------4------|
D|----------3------|-----------5-------------|--6-------1----------|--3-------5--------|

[Prechorus]
D|-------------------|-------------------|-------------------|-------------------|
A|-------------------|-------------------|-------------------|-------------------|
F|-------------------|-------------------|-------------------|-------------------|
C|----8-8-7-5-5-3-3--|--2-2-2-2-3-3-5-5--|--2-2-2-2-2-2-2-2--|--3-3-3-3-3-3-3-3--|
G|--5-5-5-5-5-5-5-5--|--3-3-3-3-3-3-3-3--|--4-4-4-4-4-4-4-4--|--5-5-5-5-5-5-5-5--|
D|--3-3-3-3-3-3-3-3--|--3-3-3-3-3-3-3-3--|--5-5-5-5-5-5-5-5--|--6-6-6-6-6-6-6-6--|

D|-------------------|----------------------------|
A|-------------------|----------------------------|
F|-------------------|----------------------------|
C|-------------------|--5-5-5-5-5--/7-------------|
G|--1-1-1-1-1-1-1-1--|--7-7-7-7-7------10-8-------|
D|--3-3-3-3-3-3-3-3--|--8-8-8-8-8-----------10-8--|

[Chorus]
D|-----------------|-------------------------|--------------------|---------------------------------|
A|-----------------|-------------------------|--------------------|---------------------------------|
F|--5--5-5---------|-------------------------|--------------------|-----------------------10h12p10--|
D|--7--7-7---------|-----------/7------------|--5---6---3--3-X-X--|--10-10--X-X-10--10h12-----------|
G|--8--8-8--10--6--|--8-8-8-3-----10-8-------|--7---8---5--5-X-X--|---8--8--X-X--8------------------|
D|-----------6--6--|--6-6-6-1----------10-8--|--8---9---6--6-X-X--|---------------------------------|

D|-----------------|-------------------------|--------------------|-------------------------------|
A|-----------------|-------------------------|--------------------|-------------------------------|
F|--5--5-5---------|-------------------------|--------------------|-------------------------------|
D|--7--7-7---------|-----------/7------------|--5---6---3--3-X-X--|--12-10-----10---/7------------|
G|--8--8-8--10--8--|--8-8-8-3-----10-8-------|--7---8---5--5-X-X--|---------12\-8------10-8-------|
D|-----------6--6--|--6-6-6-1----------10-8--|--8---9---6--6-X-X--|-------------------------10-8--|

[Bridge]
D|------------------------------|---------------------------------|
A|------------------------------|---------------------------------|
F|--7--7-7-7-7------------------|--5--5-5-5--5-5------------------|
C|--7--7-7-7-7--5--5-5-5-5-5-5--|--5--5-5-5--5-5--5--/7-----------|
G|--5--5-5-5-5--5--5-5-5-5-5-5--|--3--3-3-3--3-3--5-----10-8------|
D|--------------3--3-3-3-3-3-3--|-----------------3---------10-8--|

D|--------------------|----------------------------|
A|--------------------|----------------------------|
F|--------------------|----------------------------|
C|--8--8-8--3--3-3-3--|--5--5-5-5--7--/7-----------|
G|--8--8-8--3--3-3-3--|--5--5-5-5--7-----10-8------|
D|--6--6-6--1--1-1-1--|--3--3-3-3--5---------10-8--|

D|------------------------------|---------------------------------|
A|------------------------------|---------------------------------|
F|--7--7-7-7-7------------------|--5--5-5-5--5-5------------------|
C|--7--7-7-7-7--5--5-5-5-5-5-5--|--5--5-5-5--5-5--5--/7-----------|
G|--5--5-5-5-5--5--5-5-5-5-5-5--|--3--3-3-3--3-3--5-----10-8------|
D|--------------3--3-3-3-3-3-3--|-----------------3---------10-8--|

D|--------------------|-------------------|
A|--------------------|-------------------|
F|--------------------|--5-------6--------|
C|--8--8-8--3--3-3-3--|----5-2-----5-2----|
G|--8--8-8--3--3-3-3--|--------3-------4--|
D|--6--6-6--1--1-1-1--|-------------------|

[Solo]
(Rhythm)
D|---------------------|-----|----------------------|-------------|
A|---------------------|-----|----------------------|-------------|
F|--7------------------|--5--|--5-------------------|--7----------|
C|--7-(let ring)-------|--5--|--5-(let ring)--------|--7----8--7--|
G|--5------------------|--3--|--3-------------------|--5----8--7--|
D|---------------------|-----|----------------------|-------6--5--|
 |
(Lead)
D|---------------------|-----|----------------------|-------------|
A|---------------------|-----|----------------------|-------------|
F|--7-------7-9-10/12--|--5--|--5--------5-7--9--5--|--7----7--7--|
C|------7-7------------|-----|-----5--5-------------|-------------|
G|---------------------|-----|----------------------|-------------|
D|---------------------|-----|----------------------|-------------|

(Rhythm)
D|---------------------|------------------|----------------------|-----------------------------|
A|---------------------|------------------|----------------------|-----------------------------|
F|--7------------------|--5---------------|--2-------------------|-----------------------------|
C|--7-(let ring)-------|--5---------------|--2-(let ring)--------|--8-8-8-8-10-----------------|
G|--5------------------|--3---------------|--0-------------------|--8-8-8-8-10-----------------|
D|---------------------|------------------|----------------------|--6-6-6-6--8-----------------|
 |
(Lead)
D|---------------------|----------8-------|----------------------|--------------8--------------|
A|---------------------|-----8-10---10-8--|----------------------|--------6-9^----8h10p8-------|
F|--7-------7-9-10/12--|--5---------------|--6--------6-7--9--6--|--7---7----------------7-----|
C|------7-7------------|------------------|-----7--7-------------|----8--------------------10--|
G|---------------------|------------------|----------------------|-----------------------------|
D|---------------------|------------------|----------------------|-----------------------------|

[Chorus]
D|-----------------|-------------------------|--------------------|---------------------------------|
A|-----------------|-------------------------|--------------------|---------------------------------|
F|--5--5-5---------|-------------------------|--------------------|-----------------------10h12p10--|
D|--7--7-7---------|------------7------------|--5---6---3--3-X-X--|--10-10--X-X-10--10h12-----------|
G|--8--8-8--10--8--|--8-8-8-3-----10-8-------|--7---8---5--5-X-X--|---8--8--X-X--8------------------|
D|-----------6--6--|--6-6-6-1----------10-8--|--8---9---6--6-X-X--|---------------------------------|

D|-----------------|-------------------------|--------------------|-----------------------|
A|-----------------|-------------------------|--------------------|-----------------------|
F|--5--5-5---------|-------------------------|--------------------|-----------------------|
D|--7--7-7---------|------------7------------|--5---6---3--3-X-X--|--12-10-----10-----10--|
G|--8--8-8--10--8--|--8-8-8-3-----10-8-------|--7---8---5--5-X-X--|---------12\-8------8--|
D|-----------6--6--|--6-6-6-1----------10-8--|--8---9---6--6-X-X--|-----------------------|

************************************

/\ - slide
pm - palm mute
b - bend
p - pull off
~ - let ring
h - hammer on
< > - pinch harmonic
x - fret hand muting

************************************
Suggest correction
Creating personal tab
Creating personal tab
You can edit any tab online and save it as your Personal.

You can edit, replace or remove any tab part or add personal notes – all changes will be seen only by you.

Personal tabs can be accessed anytime from any device, even offline.
Learn more »
Give kudos to tab author, rate the tab!
1 2 3 4 5
comments
print report bad tab
guest
You may want to rate the tab now too:
select rating
Wanna post a correction for this tab? Suggest correction