Oops, an error
Loading. Please wait.

Entombed tab

by Puppy
70 views 6 this week
no commentswrite comment
1 2 3 4 5
3 more votes to show rating
add to favorites
×
Save as Personal and add changes to this tab that will be seen only by you. Learn more ›
×
You can save this tab as Personal to edit and correct it or add notes. All changes will be seen only by you. Learn more »
launch autoscroll
font size
0
reset
how to read this tab
guitar tuner
edit
Autoscroll
slow
fast
+/-
esc
set tempo
stop
This tab was transcribed entirely by ear by myself, using what few footage exists of them performing this 
song as a guide. So not everything may be 100% accurate. However, I think this comes pretty close. 
This song is performed in Whole Step Down tuning (DGCFAD)

[Intro]
(Rhythm)
D|-----------------------------------|
A|-----------------------------------|
F|-----------------------------------|
C|-----------------------------------| (x2)
G|-----------------------------------|
D|--<1>p0-<1>p0--<1>p0-<1>p0--<1>p0--|

(Drums kick in)
D|-------------------------|-------------------------|
A|-------------------------|-------------------------|
F|-------------------------|-------------------------|
C|-------------------------|-------------------------| (x2)
G|-------------------------|-------------------------|
D|--1p0-1p0--1p0-1p0--1p0--|--1p0-1p0--1p0-1p0--1p0--|

[Verse]
(Rhythm)
D|-------------------------|-------------------------|
A|-------------------------|-------------------------|
F|-------------------------|-------------------------|
C|-------------------------|-------------------------|
G|-------------------------|-------------------------|
D|--1p0-1p0--1p0-1p0--1p0--|--1p0-1p0--1p0-1p0--1p0--|
PM....................... PM.......................

D|-------------------------|-----------------------------|
A|-------------------------|-----------------------------|
F|-------------------------|-----------------------------|
C|-------------------------|-----------------------------|
G|-------------------------|-------------------------7*--|
D|--1p0-1p0--1p0-1p0--1p0--|--1p0-1p0--1p0-1p0--1p0------|
PM....................... PM.....................

[Pre-Chorus]
(Rhythm)
D|---------------------------------------------|---------------------------------------------|
A|---------------------------------------------|---------------------------------------------|
F|---------------------------------------------|---------------------------------------------|
C|---------------------------------------------|---------------------------------------------|
G|---------------------------------------------|---------------------------------------------|
D|--13p12-13p12-0-0-13p12-13p12-0-0-13p12-0-0--|--13p12-13p12-0-0-13p12-13p12-0-0-13p12-0-0--|
PM........................................... PM.........................................

D|---------------------------------------------|-------------------------------------------|
A|---------------------------------------------|-------------------------------------------|
F|---------------------------------------------|-------------------------------------------|
C|---------------------------------------------|-------------------------------------------|
G|---------------------------------------------|-------------------------------------------|
D|--13p12-13p12-0-0-13p12-13p12-0-0-13p12-0-0--|--13p12-13p12-0-0-13p12-13p12-0-0-1p0h1-4--|
PM........................................... PM................................

[Chorus]
(Rhythm)
D|----------------------------------------------|------------------------------------------------|
A|----------------------------------------------|---------------------------------10-------------|
F|------------------------7--7--7---------------|------------------------7--7--7---7---7---------|
C|--7--7---9-(9)^7----7---9--9--9--7---7-7-7-7--|--7--7---9-(9)^7----7---9--9-10---x--10-7--7-7--|
G|--7--7-----------10----10-10-10--9---9-9-9-9--|--7--7-----------10----10-10-10---9---9-9--9-9--|
D|--5--5----------------------------------------|--5--5------------------------------------------|

D|--------------------------------------------|------------------------------------|
A|--------------------------------------------|------------------------------------|
F|------------------------7--7--7-------------|------------------------------------|
C|--7--7---9-(9)^7----7---9--9--9--7---7-7-7--|--7-7-9--6--7-9-10--9-7-2--2-2-2-0--|
G|--7--7-----------10----10-10-10--9---9-9-9--|--8-8-8--x--7-7--7--7-7-3--3-3-3-0--|
D|--5--5--------------------------------------|---------7--7-7---------------------|

D|-------------------------|----------------------------|
A|-------------------------|----------------------------|
F|--------<2>-(2)^-<2>^----|---------<2>-(2)^-<2>^-0----|
C|--1-1-1---------------1--|--0--0-0-----------------3--|
G|--2-2-2---------------2--|--1--1-1-----------------1--|
D|-------------------------|----------------------------|

[Intro]
(Rhythm)
D|----------------------------------------|
A|----------------------------------------|
F|----------------------------------------|
C|----------------------------------------|
G|----------------------------------------|
D|--<1>p0-<1>p0--<1>p0-<1>p0--x-x-x-x-5*--|

[Verse]
(Rhythm)
D|-------------------------|-------------------------|
A|-------------------------|-------------------------|
F|-------------------------|-------------------------|
C|-------------------------|-------------------------|
G|-------------------------|-------------------------|
D|--1p0-1p0--1p0-1p0--1p0--|--1p0-1p0--1p0-1p0--1p0--|
PM....................... PM.......................

D|-------------------------|-----------------------------|
A|-------------------------|-----------------------------|
F|-------------------------|-----------------------------|
C|-------------------------|-----------------------------|
G|-------------------------|-------------------------7*--|
D|--1p0-1p0--1p0-1p0--1p0--|--1p0-1p0--1p0-1p0--1p0------|
PM....................... PM.....................

[Pre-Chorus]
(Rhythm)
D|---------------------------------------------|---------------------------------------------|
A|---------------------------------------------|---------------------------------------------|
F|---------------------------------------------|---------------------------------------------|
C|---------------------------------------------|---------------------------------------------|
G|---------------------------------------------|---------------------------------------------|
D|--13p12-13p12-0-0-13p12-13p12-0-0-13p12-0-0--|--13p12-13p12-0-0-13p12-13p12-0-0-13p12-0-0--|
PM........................................... PM.........................................

D|---------------------------------------------|-----------------------------|
A|---------------------------------------------|-----------------------------|
F|---------------------------------------------|-----------------------------|
C|---------------------------------------------|-----------------------------|
G|---------------------------------------------|-----------------------------|
D|--13p12-13p12-0-0-13p12-13p12-0-0-13p12-0-0--|--1p0-1p0--1p0-1p0--1p0h1-4--|
PM........................................... PM...........................

[Chorus]
(Rhythm)
D|----------------------------------------------|------------------------------------------------|
A|----------------------------------------------|---------------------------------10-------------|
F|------------------------7--7--7---------------|------------------------7--7--7---7---7---------|
C|--7--7---9-(9)^7----7---9--9--9--7---7-7-7-7--|--7--7---9-(9)^7----7---9--9-10---x--10-7--7-7--|
G|--7--7-----------10----10-10-10--9---9-9-9-9--|--7--7-----------10----10-10-10---9---9-9--9-9--|
D|--5--5----------------------------------------|--5--5------------------------------------------|

D|--------------------------------------------|------------------------------------|
A|--------------------------------------------|------------------------------------|
F|------------------------7--7--7-------------|------------------------------------|
C|--7--7---9-(9)^7----7---9--9--9--7---7-7-7--|--7-7-9--6--7-9-10--9-7-2--2-2-2-0--|
G|--7--7-----------10----10-10-10--9---9-9-9--|--8-8-8--x--7-7--7--7-7-3--3-3-3-0--|
D|--5--5--------------------------------------|---------7--7-7---------------------|

D|-------------------------|----------------------------|
A|-------------------------|----------------------------|
F|--------<2>-(2)^-<2>^----|---------<2>-(2)^-<2>^-0----|
C|--1-1-1---------------1--|--0--0-0-----------------3--|
G|--2-2-2---------------2--|--1--1-1-----------------1--|
D|-------------------------|----------------------------|

[Intro to Bridge]
(Rhythm)
D|-----------------------------------|
A|-----------------------------------|
F|-----------------------------------|
C|-----------------------------------| (x4)
G|--8p7---------8p7---------8p7------|
D|------0-0-0-0-----0-0-0-0-----0-0--|
PM................................

[Bridge]
(Rhythm)
D|-----------------------------------|--------------------------------------|
A|-----------------------------------|--------------------------------------|
F|-----------------------------------|--------------------------------------|
C|--------------------------6h7p6----|--------------------------------------| (x3)
G|--8p7---------8p7---------------8--|--8p7---------8p7--3-3-3-6-6-6-6--7*--|
D|------0-0-0-0-----0-0-0-0----------|------0-0-0-0------1-1-1-4-4-4-4------|
PM........................ PM................................

(Rhythm)
D|-----------------------------------|------------------------------------|
A|-----------------------------------|------------------------------------|
F|-----------------------------------|------------------------------------|
C|--------------------------6h7p6----|------------------------------------|
G|--8p7---------8p7---------------8--|--8p7---------8p7--3-3-3-3-6-6-6-6--|
D|------0-0-0-0-----0-0-0-0----------|------0-0-0-0------1-1-1-1-4-4-4-4--|
PM........................ PM................................

(Lead)
D|-----------------------------------|------------------------------------|
A|-----------------------------------|------------------------------------|
F|-----------------------------------|-------------------1h2-1h2-4h5-4h5--|
C|-----------------------------------|------------------------------------|
G|-----------------------------------|------------------------------------|
D|-----------------------------------|------------------------------------|

[Solo]
(Rhythm)
D|----------------------|-------------------------|
A|----------------------|-------------------------|
F|------------9--9-9-9--|--12-12-12-10--10-10-10--|
C|--7---------9--9-9-9--|--12-12-12-10--10-10-10--|
G|--7--7-7-7--7--7-7-7--|--10-10-10--8---8--8--8--|
D|--5--5-5-5------------|-------------------------|

(Lead)
D|---------------------------|-----15-----------------------|
A|-------------10------------|--15^---15v--13------5-5-6-5--|
F|---------7-9----12~~~------|----------------10---5-5-7-5--|
C|--7-9-10-------------------|------------------------------|
G|---------------------------|------------------------------|
D|-------------------12\/12--|------------------------------|

(Rhythm)
D|--------------------------|--------------------|
A|--------------------------|--------------------|
F|--------------------------|--------------------|
C|--10--10-10-10--5--5-5-5--|--3-3-3-3--2-2-2-2--|
G|--10--10-10-10--5--5-5-5--|--3-3-3-3--2-2-2-2--|
D|---8---8--8--8--3--3-3-3--|--1-1-1-1--0-0-0-0--|

(Lead)
D|-------------------------|----------------------------------|
A|--6/8\6--5-3-5-3~~----3--|-----<1>-<5>-<1>------------------|
F|--7/9\7--4-4-5-4~~----4--|--<2>-----------<1>---<4>-(4)^----|
C|-------------------------|-------------------<2>------------|
G|-------------------------|----------------------------------|
D|-------------------------|----------------------------------|

(Rhythm)
D|----------------------|--------------------------------|
A|----------------------|--------------------------------|
F|------------9--9-9-9--|--12--12-12-12-12-10--10-10-10--|
C|--7--7--7---9--9-9-9--|--12--12-12-12-12-10--10-10-10--|
G|--7--7--7---7--7-7-7--|--10--10-10-10-12--8---8--8--8--|
D|--5--5--5-------------|--------------------------------|

(Lead)
D|--------8---8~~~------|--------------------------------------------|
A|--8^-------10~~~------|--10-10-10-10-12-12-12-12-13-13-13-13-15~~--|
F|----------------------|--------------------------------------------|
C|----------------------|--------------------------------------------|
G|----------------------|--------------------------------------------|
D|----------------------|--------------------------------------------|

(Rhythm)
D|----------------|----------------|
A|----------------|----------------|
F|----------------|--12--12-12-12--|
C|--10--10-10-10--|--12--12-12-12--|
G|--10--10-10-10--|--10--10-10-10--|
D|---8---8--8--8--|----------------|

(Lead)
D|--17p15h17p15p12h15p12h15p12---12---12--|---------------------------|
A|-----------------------------15---15----|--13-15-13----13-15-13-----|
F|----------------------------------------|-----------16----------16--|
C|----------------------------------------|---------------------------|
G|----------------------------------------|---------------------------|
D|----------------------------------------|---------------------------|

(Rhythm)
D|--------------------------|-------------------|
A|--------------------------|-------------------|
F|--10-10-10-10-10-10-10-10-|-------------------|
C|--10-10-10-10-10-10-10-10-|--2-2-2-2-2-2-2-2--|
G|---8--8--8--8--8--8--8--8-|--2-2-2-2-2-2-2-2--|
D|--------------------------|--0-0-0-0-0-0-0-0--|

(Lead)
D|--------------------------------------------------|--------------------------------------------------|
A|--------------------------------------15-15-15-15-|--------------------------------------------------|
F|--14-14-14-14-16-16-16-16-17-17-17-17-------------|--------------------------------------------------|
C|--------------------------------------------------|-17-17-17-17-14-14-14-14--------------------------|
G|--------------------------------------------------|-------------------------17-17-17-17--------------|
D|--------------------------------------------------|-------------------------------------20-20-20-20--|

[Chorus]
(Rhythm)
D|----------------------------------------------|------------------------------------------------|
A|----------------------------------------------|---------------------------------10-------------|
F|------------------------7--7--7---------------|------------------------7--7--7---7---7---------|
C|--7--7---9-(9)^7----7---9--9--9--7---7-7-7-7--|--7--7---9-(9)^7----7---9--9-10---x--10-7--7-7--|
G|--7--7-----------10----10-10-10--9---9-9-9-9--|--7--7-----------10----10-10-10---9---9-9--9-9--|
D|--5--5----------------------------------------|--5--5------------------------------------------|

(Lead)
D|--15^~~~~--|
A|-----------|
F|-----------|
C|-----------|
G|-----------|
D|-----------|

D|--------------------------------------------|------------------------------------|
A|--------------------------------------------|------------------------------------|
F|------------------------7--7--7-------------|------------------------------------|
C|--7--7---9-(9)^7----7---9--9--9--7---7-7-7--|--7-7-9--6--7-9-10--9-7-2--2-2-2-0--|
G|--7--7-----------10----10-10-10--9---9-9-9--|--8-8-8--x--7-7--7--7-7-3--3-3-3-0--|
D|--5--5--------------------------------------|---------7--7-7---------------------|
PM.....

D|-------------------------|----------------------------|
A|-------------------------|----------------------------|
F|--------<2>-(2)^-<2>^----|---------<2>-(2)^-<2>^-0----|
C|--1-1-1---------------1--|--0--0-0-----------------3--|
G|--2-2-2---------------2--|--1--1-1-----------------1--|
D|-------------------------|----------------------------|

[Outro]
(Rhythm)
D|-----------------------------------|
A|-----------------------------------|
F|-----------------------------------|
C|-----------------------------------|
G|-----------------------------------|
D|--<1>p0-<1>p0--<1>p0-<1>p0--<1>p0--|

D|-----------------------------------|
A|-----------------------------------|
F|-----------------------------------|
C|-----------------------------------|
G|-----------------------------------|
D|--<1>p0-<1>p0--<1>p0-<1>p0---------|

(Drums kick in)
D|-------------------------|-------------------------|
A|-------------------------|-------------------------|
F|-------------------------|-------------------------|
C|-------------------------|-------------------------|
G|-------------------------|-------------------------|
D|--1p0-1p0--1p0-1p0--1p0--|--1p0-1p0--1p0-1p0--1p0--|

D|-------------------------|--------------------------------|
A|-------------------------|--------------------------------|
F|-------------------------|--------------------------------|
C|-------------------------|--------------------------------|
G|-------------------------|---------------3-3-3-6-6-6-6-6--|
D|--1p0-1p0--1p0-1p0--1p0--|--1p0-1p0--1p0-1-1-1-4-4-4-4-4--|


************************************

| /\  - slide
| pm - palm mute
| b  - bend
| p  - pull off
| ~  - let ring
| h  - hammer on
| <> - pinch harmonic
| () - tied note
| * - natural harmonic
| ^v - Bend up/down
| x  - fret hand muting

************************************

            
            
Suggest correction
Creating personal tab
Creating personal tab
You can edit any tab online and save it as your Personal.

You can edit, replace or remove any tab part or add personal notes – all changes will be seen only by you.

Personal tabs can be accessed anytime from any device, even offline.
Learn more »
Give kudos to tab author, rate the tab!
1 2 3 4 5
comments
print report bad tab
guest
You may want to rate the tab now too:
select rating
Wanna post a correction for this tab? Suggest correction