Oops, an error
Loading. Please wait.

Forever tab

by Puppy
106 views 6 this week
2 commentsread comments
1 2 3 4 5
3 more votes to show rating
add to favorites
×
Save as Personal and add changes to this tab that will be seen only by you. Learn more ›
×
You can save this tab as Personal to edit and correct it or add notes. All changes will be seen only by you. Learn more »
launch autoscroll
font size
0
reset
how to read this tab
guitar tuner
edit
Autoscroll
slow
fast
+/-
esc
set tempo
stop
This tab was transcribed entirely by ear by myself, using what few footage exists of them performing this 
song as a guide. So not everything may be 100% accurate. However, I think this comes pretty close. 
The studio recording is in Half Step Down tuning, although they perform this song in Whole Step Down tuning 
(DGCFAD), live.

[Intro]
(Rhythm)
eb|------------------------------------|--------------------------------|
Bb|------------------------------------|--------------------------------|
Gb|------8-9-8-----------4-6-4---------|-----8-9-8-----------4-6-4------|
Db|------9-9-9-9h11--9---6-6-6-11--9-7-|-----9-9-9-9h11--9---6-6-6-11~--|
Ab|--9b--7-7-7-0--0--0---6-6-6--0--0-0-|-9b--7-7-7-0--0--0---6-6-6--0~--|
Eb|------------------------------------|--------------------------------| 
  
(Lead)
eb|------2-4-2-0~~---------0---0-------|-----2-4-2-0~~---------0-2-4~---|
Bb|------------------4~--4---4-----2---|-----------------4~--4----------|
Gb|------------------------------------|--------------------------------|
Db|------------------------------------|--------------------------------|
Ab|------------------------------------|--------------------------------|
Eb|------------------------------------|--------------------------------|

(Rhythm)
eb|------------------------------------|-----------------------------------------|
Bb|------------------------------------|-----------------------------------------|
Gb|------8-9-8-----------4-6-4---------|-----8-9-8-----------4-6-4---------------|
Db|------9-9-9-9h11--9---6-6-6-11--9-7-|-----9-9-9-9h11--9---6-6-6-11~~\---------|
Ab|--9b--7-7-7-0--0--0---6-6-6--0--0-0-|-9b--7-7-7-0--0--0---6-6-6--0~~\---------|
Eb|------------------------------------|-----------------------------------------| 
  
(Lead)
eb|------2-4-2-0~~---------0---0-------|-----2-4-2-0~~---------0-2-4~------------|
Bb|------------------4~--4---4-----2---|-----------------4~--4----------9-10-12--|
Gb|------------------------------------|--------------------------------9-11-13~-|
Db|------------------------------------|-------------------------------11--------|
Ab|------------------------------------|--------------------------------0--------|
Eb|------------------------------------|-----------------------------------------|

[Verse] 
eb|------------------|---------------------|-------------------|
Bb|------------------|------------------0--|-------------------|
Gb|-----16-13-18-13--|----------0----------|-------------------|
Db|------x--x--x--x--|-6------6------6-----|--6-7-6------------| x2
Ab|-----14-11-16-11--|-7-------------------|--7-7-7--6--7--9\--|
Eb|--0---0--0--0--0--|-9---9------9--------|--5-5-6--7--7--7\--|

eb|--------------------|
Bb|--------------------|
Gb|--------------------|
Db|--6-6b-6--2-2-2-----|
Ab|--6-6b-6--4-4-4--9b-|
Eb|--4-4b-4--5-5-5-----|

[Chorus]
(Rhythm)
eb|-----------------------|-------------------------|
Bb|-----------------------|-------------------------|
Gb|--9-9-9-9--11-11-11-11-|-------------------------|
Db|--7-7-7-7---9--9--9--9-|-------9--11--11-11-11-0-| 
Ab|--7-7-7-7---9--9--9--9-|----11----11--11-11-11-0-| 
Eb|--9-9-9-9--11-11-11-11-|-12--------9---9--9--9-0-| 
                                                      x2
(Lead)
eb|------4-5-----7~~-------------------------------|
Bb|------------------------------------------------|
Gb|------------------------------------------------|
Db|------------------------------------------------|
Ab|------------------------------------------------|
Eb|------------------------------------------------|

(Rhythm)
eb|-----------------------|-------------------------|---------------------------|
Bb|-----------------------|-------------------------|---------------------------|
Gb|--9-9-9-9--11-11-11-11-|-------------------------|---------------------------|
Db|--7-7-7-7---9--9--9--9-|-------9--11--11-11-11-0-|---7-7-------7-7-----6\----|
Ab|--7-7-7-7---9--9--9--9-|----11----11--11-11-11-0-|---7-7-------7-7-----6\----|
Eb|--9-9-9-9--11-11-11-11-|-12--------9---9--9--9-0-|---5-5-------5-5-----4\----|
  
(Lead)
eb|------4-5-----7~~---12~--------------------------|--------------------------|
Bb|---------------------------12~---10-9~--9~-------|-10-10-9-10----9----------|
Gb|-------------------------------------------------|--------------------11\---|
Db|-------------------------------------------------|--------------------------|
Ab|-------------------------------------------------|--------------------------|
Eb|-------------------------------------------------|--------------------------|

[Intro]
(Rhythm)
eb|------------------------------------|--------------------------------|
Bb|------------------------------------|--------------------------------|
Gb|------8-9-8-----------4-6-4---------|-----8-9-8-----------4-6-4------|
Db|------9-9-9-9h11--9---6-6-6-11--9-7-|-----9-9-9-9h11--9---6-6-6-11~--|
Ab|--9b--7-7-7-0--0--0---6-6-6--0--0-0-|-9b--7-7-7-0--0--0---6-6-6--0~--|
Eb|------------------------------------|--------------------------------| 
  
(Lead)
eb|------2-4-2-0~~---------0---0-------|-----2-4-2-0~~---------0-2-4~---|
Bb|------------------4~--4---4-----2---|-----------------4~--4----------|
Gb|------------------------------------|--------------------------------|
Db|------------------------------------|--------------------------------|
Ab|------------------------------------|--------------------------------|
Eb|------------------------------------|--------------------------------|

(Rhythm)
eb|------------------------------------|-----------------------------------------|
Bb|------------------------------------|-----------------------------------------|
Gb|------8-9-8-----------4-6-4---------|-----8-9-8-----------4-6-4---------------|
Db|------9-9-9-9h11--9---6-6-6-11--9-7-|-----9-9-9-9h11--9---6-6-6-11~~\---------|
Ab|--9b--7-7-7-0--0--0---6-6-6--0--0-0-|-9b--7-7-7-0--0--0---6-6-6--0~~\---------|
Eb|------------------------------------|-----------------------------------------| 
  
(Lead)
eb|------2-4-2-0~~---------0---0-------|-----2-4-2-0~~---------0-2-4~------------|
Bb|------------------4~--4---4-----2---|-----------------4~--4----------9-10-12--|
Gb|------------------------------------|--------------------------------9-11-13~-|
Db|------------------------------------|-------------------------------11--------|
Ab|------------------------------------|--------------------------------0--------|
Eb|------------------------------------|-----------------------------------------|

[Verse] 
eb|-----------------|----------------------|-------------------|
Bb|-----------------|-------------------0--|-------------------|
Gb|-----16-13-18-13-|-----------0----------|-------------------|
Db|------x--x--x--x-|--6------6------6-----|--6-7-6------------| x2
Ab|-----14-11-16-11-|--7-------------------|--7-7-7--6--7--9\--|
Eb|--0---0--0--0--0-|--9---9------9--------|--5-5-6--7--7--7\--|

eb|--------------------|
Bb|--------------------|
Gb|--------------------|
Db|--6-6b-6--2-2-2-----|
Ab|--6-6b-6--4-4-4--9b-|
Eb|--4-4b-4--5-5-5-----|

[Chorus]
(Rhythm)
eb|-----------------------|-------------------------|
Bb|-----------------------|-------------------------|
Gb|--9-9-9-9--11-11-11-11-|-------------------------|
Db|--7-7-7-7---9--9--9--9-|-------9--11--11-11-11-0-| 
Ab|--7-7-7-7---9--9--9--9-|----11----11--11-11-11-0-| 
Eb|--9-9-9-9--11-11-11-11-|-12--------9---9--9--9-0-| 
                                                       x2
(Lead)
eb|------4-5-----7~~-------------------------------|
Bb|------------------------------------------------|
Gb|------------------------------------------------|
Db|------------------------------------------------|
Ab|------------------------------------------------|
Eb|------------------------------------------------|

(Rhythm)
eb|-----------------------|--------------------------|--------------------------|
Bb|-----------------------|--------------------------|--------------------------|
Gb|--9-9-9-9--11-11-11-11-|--------------------------|--------------------------|
Db|--7-7-7-7---9--9--9--9-|-------9--11--11-11-11-0--|--7-7-------7-7-----6\----|
Ab|--7-7-7-7---9--9--9--9-|----11----11--11-11-11-0--|--7-7-------7-7-----6\----|
Eb|--9-9-9-9--11-11-11-11-|-12--------9---9--9--9-0--|--5-5-------5-5-----4\----|
  
(Lead)
eb|------4-5-----7~~---12~--------------------------|---------------------------|
Bb|---------------------------12~---10-9~--9~-------|--10-10-9-10----9----------|
Gb|-------------------------------------------------|---------------------11\---|
Db|-------------------------------------------------|---------------------------|
Ab|-------------------------------------------------|---------------------------|
Eb|-------------------------------------------------|---------------------------|

[Bridge]
eb|-------------------|----------------------|------------------|--------------------------|
Bb|-------------------|----------------------|------------------|--------------------------|
Gb|--6-6-6-6--4-4-4-4-|-4-4-4-4---8--8--8--8-|----------11-9-11-|--9---9--9--9--9--9--9--9-|
Db|--6-6-6-6--4-4-4-4-|-6-6-6-6--10-10-10-10-|-7-7-7-7---x-x--x-|--9---9--9--9--9--9--9--9-| x2
Ab|--4-4-4-4--6-6-6-6-|-7-7-7-7--11-11-11-11-|-7-7-7-7---9-7--9-|-11--11-11-11-11-11-11-11-|
Eb|-------------------|----------------------|-5-5-5-5----------|--------------------------|

eb|----------------|-----------------|---------------|-------------------|
Bb|----------------|-----------------|---------------|-------------------|
Gb|----------------|-----------------|---------------|-------------------|
Db|--7-7-7-7-7-7-7-|-----------------|-6-6-6-6-6-6-6-|-6--6-6-6-6-6-6-6--|
Ab|--7-7-7-7-7-7-7-|-2--2-2-2-2-2-2-2|-4-4-4-4-4-4-4-|-6--6-6-6-6-6-6-6--|
Eb|--5-5-5-5-5-5-5-|-0--0-0-0-0-0-0-0|-2-2-2-2-2-2-2-|-4--4-4-4-4-4-4-4--|
                                                        PM.............

[Chorus]
(Clean sound)
eb|----------------------|
Bb|----------------------|
Gb|--9------11-----------|
Db|--7-------9-------9---| x2
Ab|--7-------9------11---| 
Eb|--9------11------12---| 

eb|---------------------------|
Bb|---------------------------|
Gb|--9------11----------------|
Db|--7-------9---[pick slide]-| 
Ab|--7-------9----------------| 
Eb|--9------11----------------|  

(Distortion)
eb|----------|------------------|
Bb|----------|------------------|
Gb|----------|------------------|
Db|--------9-|-11--11-11-11-11--|
Ab|-----11---|-11--11-11-11-11--| 
Eb|--12------|--9---9--9--9--9--| 

eb|------------------|----------------------|
Bb|------------------|----------------------|
Gb|------------------|----------------------|
Db|--7-7-7-7-7-7-7-7-|----------------------|
Ab|--7-7-7-7-7-7-7-7-|----------------------|
Eb|--5-5-5-5-5-5-5-5-|-4-5-4-5-11-12-14-16--|
                      PM.....

[Chorus]
(Rhythm)
eb|-----------------------|-------------------------|
Bb|-----------------------|-------------------------|
Gb|--9-9-9-9--11-11-11-11-|-------------------------|
Db|--7-7-7-7---9--9--9--9-|--9--9--9--9--9--9--9--9-| 
Ab|--7-7-7-7---9--9--9--9-|-11-11-11-11-11-11-11-11-| 
Eb|--9-9-9-9--11-11-11-11-|-12-12-12-12-12-12-12-12-| 
                                                      x2
(Lead)
eb|------4-5-----7~~--------7-----------9----------|
Bb|--5----------------------------9-----------9--7-|
Gb|------------------------------------------------|
Db|------------------------------------------------|
Ab|------------------------------------------------|
Eb|------------------------------------------------|

(Rhythm)
eb|-----------------------|------------------------|
Bb|-----------------------|------------------------|
Gb|--9-9-9-9--11-11-11-11-|------------------------|
Db|--7-7-7-7---9--9--9--9-|-------9--11--11-11-11--|
Ab|--7-7-7-7---9--9--9--9-|----11----11--11-11-11--| 
Eb|--9-9-9-9--11-11-11-11-|-12--------9---9--9--9--| 
                                              
(Lead)
eb|------4-5-----7~~-------7-----9--12~-------12\--|
Bb|------------------------------------------------|
Gb|------------------------------------------------|
Db|------------------------------------------------|
Ab|------------------------------------------------|
Eb|------------------------------------------------|

(Rhythm)
eb|-----------------------------------|
Bb|-----------------------------------|
Gb|-----------------------------------|
Db|--7-7-7-7-7-7-7-7--9-9-9-9-9-9-9-9-|
Ab|--7-7-7-7-7-7-7-7--9-9-9-9-9-9-9-9-|
Eb|--5-5-5-5-5-5-5-5--7-7-7-7-7-7-7-7-|
                                              
(Lead)
eb|--9---------------------------------|
Bb|--------------9-9\-7-----------4-4~-|
Gb|------------------------------------|
Db|------------------------------------|
Ab|------------------------------------|
Eb|------------------------------------|

[Intro]
(Rhythm)
eb|------------------------------------|--------------------------------|
Bb|------------------------------------|--------------------------------|
Gb|------8-9-8-----------4-6-4---------|-----8-9-8-----------4-6-4------|
Db|------9-9-9-9h11--9---6-6-6-11--9-7-|-----9-9-9-9h11--9---6-6-6-11~--|
Ab|------7-7-7-0--0--0---6-6-6--0--0-0-|-9b--7-7-7-0--0--0---6-6-6--0~--|
Eb|------------------------------------|--------------------------------|
  
(Lead)
eb|------2-4-2-0~~---------0---0-------|-----2-4-2-0~~---------0-2-4~---|
Bb|------------------4~--4---4-----2---|-----------------4~--4----------|
Gb|------------------------------------|--------------------------------|
Db|------------------------------------|--------------------------------|
Ab|------------------------------------|--------------------------------|
Eb|------------------------------------|--------------------------------|

(Rhythm)
eb|------------------------------------|------------------------------------|
Bb|------------------------------------|-------------------------------9~~--|
Gb|------8-9-8-----------4-6-4---------|-----8-9-8-------------4-6-4---9~~--|
Db|------9-9-9-9h11--9---6-6-6-11--9-7-|-----9-9-9-9h11--9-----6-6-6--11~~--|
Ab|--9b--7-7-7-0--0--0---6-6-6--0--0-0-|-9b--7-7-7-0--0--0-----6-6-6---0~~--|
Eb|------------------------------------|------------------------------------| 
  
(Lead)
eb|------2-4-2-0~~----------0---0------|-----2-4-2-0~~------------0-2---4~--|
Bb|------------------4~--4----4------2-|-----------------4~-----4-----------|
Gb|------------------------------------|------------------------------------|
Db|------------------------------------|------------------------------------|
Ab|------------------------------------|------------------------------------|
Eb|------------------------------------|------------------------------------|


************************************

/\  - slide
pm - palm mute
b  - bend
p  - pull off
~  - let ring
h  - hammer on
< > - pinch harmonic
x  - fret hand muting

************************************
Suggest correction
Creating personal tab
Creating personal tab
You can edit any tab online and save it as your Personal.

You can edit, replace or remove any tab part or add personal notes – all changes will be seen only by you.

Personal tabs can be accessed anytime from any device, even offline.
Learn more »
Give kudos to tab author, rate the tab!
1 2 3 4 5
comments
print report bad tab
2 comments total.
0 reply
shamhen 10 Jun 23, 2017 05:50 PM

Plz do Entombed

guest
You may want to rate the tab now too:
select rating
Wanna post a correction for this tab? Suggest correction