Oops, an error
Loading. Please wait.

Bury My Bones bass

1,083 views 1 this week
7 commentsread comments
1 2 3 4 5
2 more votes to show rating
add to favorites
×
Save as Personal and add changes to this tab that will be seen only by you. Learn more ›
×
You can save this tab as Personal to edit and correct it or add notes. All changes will be seen only by you. Learn more »
launch autoscroll
font size
0
reset
guitar tuner
edit
Autoscroll
slow
fast
+/-
esc
set tempo
stop
Author
Difficulty
----------------------------------------------------------------------------
                           BURY MY BONES - Pure Love
----------------------------------------------------------------------------
Tabbed by: Dr Sin
E-mail: drsin13@hotmail.co.uk

VIDEO COVER AT http://www.youtube.com/watch?v=pIzssVha6Eo

Tuning: Standard

I dislike tabs which look like 777777777777 so I have only written each fret once, just 
listen to hear when it changes.

INTRO - NO GUITAR

VERSE:

G|---------------------------|
D|---------------------------|
A|----4---------------X4-----|
E|-0------5-5---0-0----------|

PRE-CHORUS:

G|----------------------------------------------------------6----------|
D|----------------------------------------------6---7-----9---9-7-9----|
A|------7-----9-11\--------7----------------7-9---7--------------------|
E|-4-5----------------4-5----9--7--9---4-5-----------------------------|

CHORUS:

G|---------------------------------------------------------------------------|
D|---------------------------------------------------------------------------|
A|---------------------------------------------------------------------------|
E|-0--5--5-5--0-0--X4--2-4-2-------------------------------------------------|

VERSE 2:

G|----------------------------|
D|----------------------------|
A|----4---------------X4------|
E|-0------5-5---0-0------2-4-2|

PRE-CHORUS:

G|----------------------------------------------------------6----------|
D|----------------------------------------------6---7-----9---9-7-9----|
A|------7-----9-11\--------7----------------7-9---7--------------------|
E|-4-5----------------4-5----9--7--9---4-5-----------------------------|

CHORUS:

G|---------------------------------------------------------------------------|
D|---------------------------------------------------------------------------|
A|---------------------------------------------------------------------------|
E|-0--5--5-5--0-0--X4--2-4-2-------------------------------------------------|

BRIDGE:

G|----------------------------------------------------|
D|---------------------6------------------------------|
A|---------------7--9-----9--7------------------------|
E|-4----5--4-2-4----------------9---4----5--4-5-6-7---|

SOLO:

G|----------------------------------|
D|----------------------------------|
A|--------------------4-44----------|
E|--0--5-55--00--X3-0------00-2-4-2-|

PRE-CHORUS:

G|----------------------------------------------------------6----------|
D|----------------------------------------------6---7-----9---9-7-9----|
A|------7-----9-11\--------7----------------7-9---7--------------------|
E|-4-5----------------4-5----9--7--9---4-5-----------------------------|

CHORUS AND OUTRO.

G|-----------------------------------|
D|-----------------------------------|
A|-----------------------------------|
E|-0--5--5-5--0-0--X4--0-5---5--0----|

            
            
Suggest correction
Creating personal tab
Creating personal tab
You can edit any tab online and save it as your Personal.

You can edit, replace or remove any tab part or add personal notes – all changes will be seen only by you.

Personal tabs can be accessed anytime from any device, even offline.
Learn more »
Give kudos to tab author, rate the tab!
1 2 3 4 5
comments
print report bad tab
7 comments total. Showing first comments.
0 reply
Tapwater 134 Mar 15, 2015 02:04 PM

I dislike that the number of times a fret was suppose to be used isn't written, it makes the song much harder to learn now.

0 reply
Tapwater 134 Apr 15, 2015 10:49 AM

Lack of accuracy. Tab incomplete. Hasn't included the amount of times a note should be hit, which makes the tab lack accuracy and therefore wrong.

0 reply
Tapwater 134 May 07, 2016 06:18 AM

They have only written each note once, meaning I have no idea how many times to hit each note, which means it therefore lacks accuracy, which in turn means this tab is incorrect.

guest
You may want to rate the tab now too:
select rating
Wanna post a correction for this tab? Suggest correction