Oops, an error
Loading. Please wait.

She Makes The Devil Run Through Me Tab

1,331 views 1 this week
no commentswrite comment
1 2 3 4 5
please rate
add to favorites
launch autoscroll
font size
0
reset
how to read this tab
guitar tuner
Autoscroll
slow
fast
+/-
esc
set tempo
stop
Help us to improve Ultimate-Guitar.com Take our survey!
×
Author
Difficulty
intermediate
PURE LOVE – SHE (MAKES THE DEVIL RUN THROUGH ME)

Guitar cover here - http://www.youtube.com/watch?v=VdlZubEPQ8Q


INTRO:

E|---------------------------|
B|-------------------------3-|
G|-------2---------0-----0---|
D|---0h2---2-0---2-----4-----|  X4
A|-0~~~~~~~~~~~3~~~~/5-------|
E|---------------------------|

VERSE ONE:

(Pick individual notes, apart from D, which is three chords in quick succession)

       Am    C   Cmaj7   Am    C     D
E|-----0-----0-----0-----0-----0-------------|
B|-----1-----1-----1-----1-----1-----3-3-3---|
G|-----2-----0-----0-----2-----0-----2-2-2---| X2
D|-----2-----2-----2-----2-----2-----0-0-0---|
A|-----0-----3-----2-----0-----3-------------|
E|-------------------------------------------|

CHORUS:

        C     D     Am     F     G
E|-----0-----2-----0----|-1-----3-----|
B|-----1-----3-----1----|-1-----3-----|
G|-----0-----2-----2—X3-|-2-----4-----|
D|-----2-----0-----2----|-3-----5-----|
A|-----3-----------0----|-3-----5-----|
E|----------------------|-1-----3-----|
                             (I still wouldn’t take you home etc)

RIFF:

E|---------------------------|
B|-------------------------3-|
G|-------2---------0-----0---|
D|---0h2---2-0---2-----4-----|  X4
A|-0~~~~~~~~~~~3~~~~/5-------|
E|---------------------------|

VERSE TWO:

(Same as verse one, but when the first two Cs are played, the following riffs are played 
over the top)

E|----------------------------|
B|----------------------------|
G|-----5--7b7--7--5-----5-----|
D|--7----------------7-----7--|
A|----------------------------|
E|----------------------------|

E|-----------------|
B|--5--------------|
G|--7b--7--5----5--|
D|-----------7-----|
A|-----------------|
E|-----------------|

CHORUS:

        C     D     Am     F     G
E|-----0-----2-----0----|-1-----3-----|
B|-----1-----3-----1----|-1-----3-----|
G|-----0-----2-----2—X3-|-2-----4-----|
D|-----2-----0-----2----|-3-----5-----|
A|-----3-----------0----|-3-----5-----|
E|----------------------|-1-----3-----|
                             (I still wouldn’t take you home etc)

BRIDGE:

E|-----------|----------|
B|-----------|----------|
G|--2--2--0--|-5-5-5----|
D|--2------X3|-5-5-5----|  X4
A|--0--------|-3-3-3----|
E|-----------|----------|


SOLO:

E|------------------------------------12------------------12------------------|
B|-------10--8------------------------15b-15--13--12--13------13--12----------|
G|---7-9-------9--7--9--9--9--7---------------------------------------14--12--|
D|-7----------------------------10--7-----------------------------------------|
A|----------------------------------------------------------------------------|
E|----------------------------------------------------------------------------|

E|--------------------------------|
B|--------------------------------|
G|--9--------------9--------------|
D|-----12--10--12-----12--10--12--|
A|--------------------------------|
E|--------------------------------|

E|-------------------------------------------------------------------|
B|-------------------------------------------------------------------|
G|-------------------------------------------------------------------|
D|-10-10-10-9-9-9-7-7-7-5------------5-----10----10-12-12b-12--10----|
A|-------------------------7-5---5-7---12----12--------------12------|
E|-----------------------------8-------------------------------------|

E|-----17-17-----------------------------|
B|-17--------X3--------------5-----------|
G|-19b----------19b-19-17----7b-7b-7-5---|
D|-------------------------------------7-|
A|---------------------------------------|
E|---------------------------------------|

CHORUS:

        C     D     Am     F     G
E|-----0-----2-----0----|-1-----3-----|
B|-----1-----3-----1----|-1-----3-----|
G|-----0-----2-----2—X3-|-2-----4-----|
D|-----2-----0-----2----|-3-----5-----|
A|-----3-----------0----|-3-----5-----|
E|----------------------|-1-----3-----|
                             (I still wouldn’t take you home etc)
                                  (Repeat G and end on Am last repeat)
Suggest correction
What's this?
You can suggest a correction to this tab. Community and Mods will review your correction and vote to approve or reject it.
comments
We did not receive enough feedback on this tab! Please rate:
print report bad tab
1 2 3 4 5
guest
You may want to rate the tab now too:
select rating
Please do not post tabs as comments. Select "correction" instead!