Oops, an error
Loading. Please wait.

Aime tab

26,222 views 12 this week
no commentswrite comment
1 2 3 4 5
x 3
add to favorites
×
Save as Personal and add changes to this tab that will be seen only by you. Learn more ›
×
You can save this tab as Personal to edit and correct it or add notes. All changes will be seen only by you. Learn more »
launch autoscroll
font size
0
reset
how to read this tab
guitar tuner
edit
Autoscroll
slow
fast
+/-
esc
set tempo
stop
Pure Prairie League: Amie - Multi Guitar Arrangement
By Craig Fuller 
 
Chords Used    
A5      xx7910x        
A       x02220      
G       3x003x    
D       xx0232 
D/F#    2x0232  
C       x32010   
Bm      x2443x     
Bm/A    x0443x 
E       022100   
Asus2   5x245x  
Dadd2/A x07770  
D/A     x0423x 
A7      x070109    
E7b9/A  x06760    
Aadd2   x07600 
 
Gtr I   12-string acoustic 
Gtr II  6-string acoustic 
Gtr III 6-string acoustic 
Gtr IV  Electric  
Gtr V   Electric 
 
All Guitars Standard Tuning 
 
 
   Intro 
    Lively 1/2-time swing H=94(8=s8) 
   2/2 
    Gtr I 
    Q   Q  Q   Q    Q   Q  Q   Q      Q    Q   Q   Q 
||----------------|----------------||------------------| 
||o----10-----10--|----10-----10--o||-----10------10---| 
||------9------9--|-----9------9---||------9-------9---| 
||--7------7---7--|-7------7-------||-7--------7---7---| 
||o---------------|---------------o||------------------| 
||----------------|----------------||------------------| 
| 
|   Gtrs II, III 
|   W               W                 E E  E E Q   E E 
||----------------|----------------||------------------| 
||o---------------|---------------o||------------------| 
||----------------|----------------||------2---2---4-2-| 
||----------------|----------------||-2-4--------------| 
||o---------------|---------------o||------------------| 
||----------------|----------------||------------------| 
 
 
  Q    Q   Q    Q     Q    Q   Q   Q     Q    Q  Q    Q 
|-------------------|------------------|------------------| 
|-----10-------10---|-----10------10---|-----10------10---| 
|------9--------9---|------9-------9---|------9-------9---| 
|-7--------7--------|-7--------7---7---|-7-------7--------| 
|-------------------|------------------|------------------| 
|-------------------|------------------|------------------| 
| 
| E E  E E E E  E E   E E  E E Q   E E   E E  Q  Q.     E 
|-------------------|------------------|------------------| 
|------5-7-5--------|------------------|------------------| 
|-4s6--------6s=4-2-|------2---2---4-2-|-4s6--4--4--------| 
|-------------------|-2-4--------------|------------------| 
|-------------------|------------------|------------------| 
|-------------------|------------------|------------------| 
 
 
  Q    Q   Q   Q     Q    Q   Q    Q 
|------------------|-------------------| 
|-----10------10---|-----10-------10---| 
|------9-------9---|------9--------9---| 
|-7--------7---7---|-7--------7--------| 
|------------------|-------------------| 
|------------------|-------------------| 
| 
| Gtr II 
| E E  E E Q   E E   E E  E E E E  E E 
|------------------|-------------------| 
|------------------|------5-7-5-7--5-7-| 
|------2---2---4-2-|-4s6---------------| 
|-2-4--------------|-------------------| 
|------------------|-------------------| 
|------------------|-------------------| 
| 
| Gtr III 
| E E  E E Q   E E   E E  E E E E  E E 
|------------------|----------5----5---| 
|------------------|------5-7---7----7-| 
|------2---2---4-2-|-4-6---------------| 
|-2-4--------------|-------------------| 
|------------------|-------------------| 
|------------------|-------------------| 
 
 
  Q    Q   Q      Q       Q    Q   Q      Q 
|-----------------------|---------------------| 
|-----10---------10-----|-----10---------10---| 
|------9----------9-----|------9----------9---| 
|-7--------7------7-----|-7--------7----------| 
|-----------------------|---------------------| 
|-----------------------|---------------------| 
| 
| E E  E E E E    E S S   E E  E E E   E  E E 
|-5---------------------|------5---7b9-7--5---| 
|---7--5-7-5-5----5-----|-5-7----7------------| 
|---------------------x-|---------------------| 
|-------------------x---|---------------------| 
|-----------------------|---------------------| 
|-----------------------|---------------------| 
| 
| E E  E E E S S  E E     E E  E E E   E  E E 
|-5---------------------|---------------------| 
|---7--5-7-5------5-5---|-5-7--5--------------| 
|--------------x--------|--------6s4---2------| 
|------------x----------|-----------------4---| 
|-----------------------|---------------------| 
|-----------------------|---------------------| 
 
 
  E E H.         E E Q  E E Q    Q   H.        E E Q  E E Q 
|--------------|------------2--|-----0-------|------------2--|| 
|-----2--------|-0---3------3--|-----2-------|---0-3----3-3--|| 
|-----2--------|-x-0-0----0-2--|-----2-------|---0-0----2-2--|| 
|---2-2--------|-x-0-0--x-0-0--|-----2-------|-----0--x---0--|| 
|-0------------|--------x------|-----0-------|-x------x------|| 
|--------------|-----3---------|-------------|-----3------2--|| 
| 
| Q   H     Q    E E Q  E E Q    E E H.        E E Q  E E Q 
|--------------|------------2--|-------------|-----2----0-2--|| 
|-----2-----2--|-----3------3--|-----2-------|-3---3------3--|| 
|-----2--------|---0-0----0-2--|-----2-------|-x---2------2--|| 
|-----2--------|---0-0----0-0--|-----2-------|-x---2------0--|| 
|-0------------|---------------|-x---0-------|-----0--x------|| 
|--------------|-x---3--x---2--|-------------|-3-------------|| 
 
 
 1st Verse 
  A                     G       D 
  Gtr II 
  Q  Q      E  E  E E   E E E E E E E E 
  |  |      |  |  | |   | | | | | | | 
  /  /      /  /  / /   / / / / / / / 
 
  Gtr IV 
  Q  E  E  +E  E  E E   E E E E E E E E 
|---------------------|-----------------| 
|----9h10-(10)--------|-7h8-------7-----| 
|--------------9------|-------7-----7---| 
|----9h11-(11)---11---|-7h9-9---7-------| 
|---------------------|-----------------| 
|---------------------|-----------------| 
| 
| Gtr III 
| Q  Q      Q     E E   Q   Q   Q   Q 
|---------------------|-------------2---| 
|----2------------2---|-----3-------3---| 
|----2------------2---|-----0-------2---| 
|----2------------2---|-----0---0-------| 
|-0-------------------|-----------------| 
|-----------0---------|-3---------------| 
 
 
  A                     G       D/F# 
  Q  Q      E  E  E E   E E E E E E Q 
  |  |      |  |  |     | | |   | | | 
  /  /      /  /  /     / / /   / / / 
 
  Q  E  E  +E  E  E E   E E E E E E E E 
|---------------------|-----------------| 
|----9h10-(10)--------|-7h8-------7-----| 
|--------------9------|-------7-----7---| 
|----9h11-(11)---11---|-7h9-9---7-------| 
|---------------------|-----------------| 
|---------------------|-----------------| 
| 
| Q  Q      Q     E E   Q   Q   Q   E E 
|---------------------|-----------------| 
|----2------------2---|-----3-------3---| 
|----2------------2---|-----0-------2---| 
|----2------------2---|-----0-------0---| 
|-0-------------------|-----------------| 
|-----------0---------|-3-------2-------| 
 
 
  A                       G       D 
  Q   Q      E   E  E E   E E Q   E E E E 
  |   |      |   |  |     | | |   | | | 
  /   /      /   /  /     / / /   / / / 
 
  Q   E  E  +E   E  E E   E E E E E E E E 
|----12-----------------|-----------------| 
|---------------10------|-7h8-------7-----| 
|-----------------------|-------7-----7---| 
|-----9h11-(11)----11---|-7h9-9---7-------| 
|-----------------------|-----------------| 
|-----------------------|-----------------| 
| 
| Q   Q      Q      E E   Q   Q   Q   E E 
|-----------------------|-----------------| 
|-----2-------------2---|-----3-------3---| 
|-----2-------------2---|-----0-------2---| 
|-----2-------------2---|-----0-------0---| 
|-0---------------------|-----------------| 
|------------0----------|-3-------2-------| 
 
 
  A 
  Q  Q      E  E  Q    Q     Q    E  E  E E 
  |  |      |  |  |    |     |    |  |  | 
  /  /      /  /  /    /     /    /  /  / 
 
  Q  E  E  +E  E  Q    E  E  E E +Q     E E 
|--------------------|----------------------| 
|----9h10-(10)-------|-9h10-----------------| 
|--------------9-----|---------9-(9)----9---| 
|----9h11-(11)---11--|-9h11-11---------11---| 
|--------------------|----------------------| 
|--------------------|----------------------| 
| 
| Q  Q      Q     Q    Q     Q    Q     E E 
|--------------------|----------------------| 
|----2------------2--|-------2----------2---| 
|----2------------2--|-------2----------2---| 
|----2------------2--|-------2----------2---| 
|-0------------------|-0--------------------| 
|-----------0--------|------------0---------| 
 
 
  D                               C 
  Gtrs II, III 
  Q  Q  E E Q     E E Q  E E Q    Q  Q  E E E E   Q  Q  E E E E 
  |  |  | | |     | | |  | | |    |  |  | | |     |  |  | | | | 
  /  /  / / /     / / /  / / /    /  /  / / /     /  /  / / / / 
 
  Gtr IV 
  H     E E E E   W               W               W 
|---------------|---------------|---------------|---------------| 
|-------------8p|=7-------------|---------------|---------------| 
|-----------7---|---------------|---------------|---------------| 
|-------7h9-----|---------------|---------------|---------------| 
|---------------|---------------|---------------|---------------| 
|---------------|---------------|---------------|---------------| 
 
 
  D                                 C 
  Q  Q   E E Q    Q   Q   E E E E   Q  Q  E E Q    E E Q  E E Q 
  |  |   | | |    |   |   | | |     |  |  | | |    | | |  | | | 
  /  /   / / /    /   /   / / /     /  /  / / /    / / /  / / / 
 
  Q  E E E E Q    E E E E Q   Q     W              W 
|---------------|-----------------|--------------|---------------| 
|----------8p7--|-------8p7-------|--------------|---------------| 
|--------7------|-----7---7-------|--------------|---------------| 
|----7h9--------|-7h9-------------|--------------|---------------| 
|---------------|-----------------|--------------|---------------| 
|---------------|-----------------|--------------|---------------| 
 
 
  E 
  Q  Q  E  E Q      Q    Q    E  E Q 
  |  |  |  | |      |    |    |  | | 
  /  /  /  / /      /    /    /  / / 
 
  H     E  E E  E   E  E E  E E  E E  E 
|-----------------|---------------------| 
|--------------10-|--------10--------10-| 
|------------9----|------9---------9----| 
|-------9h11------|-9h11------9h11------| 
|-----------------|---------------------| 
|-----------------|---------------------| 
 
 
  Q    Q    E  E Q      Q    Q    E  E Q 
  |    |    |  | |      |    |    |  | | 
  /    /    /  / /      /    /    /  / / 
 
  E  E E  E E  E E  E   E  E E  E E  E E  E 
|---------------------|---------------------|| 
|--------10--------10-|--------10--------10-|| 
|------9---------9----|------9---------9----|| 
|-9h11------9h11------|-9h11------9h11------|| 
|---------------------|---------------------|| 
|---------------------|---------------------|| 
 
 
 1st & 4th Choruses 
  $ 
  A                                        G                 D 
  Q    Q    Q    Q      Q    Q    Q  Q     Q   Q   E E E E   Q  Q   E E Q 
  |    |    |    |      |    |    |  |     |   |   | | | |   |  |   | | | 
  /    /    /    /      /    /    /  /     /   /   / / / /   /  /   / / / 
 
  E  E E  E E  E E  E   E  E E  E Q  E E   E E E E E E E E   Q  E E Q   E E 
|---------------------|------------------|-----------------|----------------| 
|--------10--------10-|--------10--------|-------8-------8-|------7---------| 
|------9---------9----|------9-------9---|-----7-------7---|----7-------7s9-| 
|-9h11------9h11------|-9h11------9------|-7h9-----7h9-----|-7------7-------| 
|---------------------|------------------|-----------------|----------------| 
|---------------------|------------------|-----------------|----------------| 
 
 
  A                                        G                 D 
  Q    Q    Q    Q      Q    Q    Q  E E   Q   Q   Q   E E   Q  Q    E  E Q 
  |    |    |    |      |    |    |  | |   |   |   |   | |   |  |    |  | | 
  /    /    /    /      /    /    /  / /   /   /   /   / /   /  /    /  / / 
 
  E  E E  E E  E E  E   E  E E  E Q  E E   E E E E E E E E   Q  E E +H 
|---------------------|------------------|-----------------|-----------------| 
|--------10--------10-|--------10--------|-------8-------8-|------7-(7)------| 
|------9---------9----|------9-------9---|-----7-------7---|----7------------| 
|-9h11------9h11------|-9h11------9------|-7h9-----7h9-----|-7---------------| 
|---------------------|------------------|-----------------|-----------------| 
|---------------------|------------------|-----------------|-----------------| 
 
 
                         To Coda 
  Bm                Bm/A  Bm      E 
  Q   Q   Q   Q     Q  Q  Q  Q    Q    Q    Q   Q    Q    Q    Q     E E 
  |   |   |   |     |  |  |  |    |    |    |   |    |    |    |     | 
  /   /   /   /     /  /  /  /    /    /    /   /    /    /    /     / 
 
  E E E E E E E E   Q  Q  H       E  Q   E +H        E  Q   E +E   E Q 
|-----------------|-------------|------------------|---------------------| 
|-------7-------7-|-------------|------------------|---------------------| 
|-----7-------7---|----7--------|--------9-(9)-----|--------9-(9)--------| 
|-7h9-----7h9-----|-7-----9-----|-9s11-------------|-9-11---------11s9---| 
|-----------------|-------------|------------------|---------------------| 
|-----------------|-------------|------------------|---------------------| 
 
 
  Gtr II 
  E E H.          E E Q  E E Q    Q   H.                E E Q   E E Q 
|---------------|------------2--|-----0---------------|-------------2---|| 
|-----2---------|-0---3------3--|-----2---------------|---0-3-----3-3---|| 
|-----2---------|-x-0-0----0-2--|-----2---------------|---0-0-----2-2---|| 
|---2-2---------|-x-0-0--x-0-0--|-----2---------------|-----0---x---0---|| 
|-0-------------|--------x------|-----0---------------|-x-------x-------|| 
|---------------|-----3---------|---------------------|-----3-------2---|| 
| 
| Gtr III 
| Q   H      Q    E E Q  E E Q    E E H.                E E Q   E E Q 
|---------------|------------2--|---------------------|-----2-----0-2---|| 
|-----2------2--|-----3------3--|-----2---------------|-3---3-------3---|| 
|-----2---------|---0-0----0-2--|-----2---------------|-x---2-------2---|| 
|-----2---------|---0-0----0-0--|-----2---------------|-x---2-------0---|| 
|-0-------------|---------------|-x---0---------------|-----0---x-------|| 
|---------------|-x---3--x---2--|---------------------|-3---------------|| 
| 
| Gtr IV 
|                                 PM 
| Q   Q   H       W               Q   E  E  +Q    Q     E E E E E E E E 
|---------------|---------------|---------------------|-----------------|| 
|---------------|---------------|-----9h10-(10)-------|-7h8-----7-------|| 
|---------------|---------------|---------------------|-------7---7-----|| 
|-7-------------|---------------|----------------11\--|-----9-------7---|| 
|---------------|---------------|-0-------------------|-----------------|| 
|---------------|---------------|---------------------|-----------------|| 
 
 
 2nd Verse 
  A                 G       D         A                 G       D/F# 
  Gtr II 
  Q   Q   E E E E   E E E E E E E E   Q   Q   E E E E   E E E E E E Q 
  |   |   | | | |   | | | | | | |     |   |   | | |     | | |   | | | 
  /   /   / / / /   / / / / / / /     /   /   / / /     / / /   / / / 
 
  Gtr III 
  Q   Q   Q   E E   Q   Q   Q   Q     Q   Q   Q   E E   Q   Q   Q   E E 
|-----------------|-------------2---|-----------------|-----------------| 
|-----2-------2---|-----3-------3---|-----2-------2---|-----3-------3---| 
|-----2-------2---|-----0-------2---|-----2-------2---|-----0-------2---| 
|-----2-------2---|-----0---0-------|-----2-------2---|-----0-------0---| 
|-0---------------|-----------------|-0---------------|-----------------| 
|---------0-------|-3---------------|---------0-------|-3-------2-------| 
| 
| Gtr IV 
| E E E E E E E E   E E E E Q   E E   E E E E E E E E   E E E E Q   E E 
|-----------------|-----------------|-----------------|-----------------| 
|-----------------|-----------------|-----------------|-----------------| 
|-----6-6-4-6-6-6-|-2-4-4-4-2---2---|-4-6-6-6-4-6-6-6-|-2-4-4-4-2---2---| 
|-6s7-7-7-6s7-7-7-|-4s5-5-5-4---4---|-6s7-7-7-6s7-7-7-|-4s5-5-5-4---4---| 
|-----------------|-----------------|-----------------|-----------------| 
|-----------------|-----------------|-----------------|-----------------| 
 
 
  A                 G       D         A 
  Q   Q   E E E E   E E Q   E E E E   Q   Q   E E Q     Q   Q   E E E E 
  |   |   | | |     | | |   | | |     |   |   | | |     |   |   | | | 
  /   /   / / /     / / /   / / /     /   /   / / /     /   /   / / / 
 
  Q   Q   Q   E E   Q   Q   Q   E E   Q   Q   Q   Q     Q   Q   Q   E E 
|-----------------|-----------------|-----------------|-----------------| 
|-----2-------2---|-----3-------3---|-----2-------2---|-----2-------2---| 
|-----2-------2---|-----0-------2---|-----2-------2---|-----2-------2---| 
|-----2-------2---|-----0-------0---|-----2-------2---|-----2-------2---| 
|-0---------------|-----------------|-0---------------|-0---------------| 
|---------0-------|-3-------2-------|---------0-------|---------0-------| 
| 
| E E E E E E E E   E E E E Q   E E   E E E E E E E E   E E E E E E E E 
|-----------------|-----------------|-----------------|-----------------| 
|-----------------|-----------------|-----------------|-----------------| 
|-4-6-6-6-4-6-6-6-|-2-4-4-4-2---2---|-4-6-6-6-4-6-6-6-|-4-6-6-6-4-6-6-6-| 
|-6s7-7-7-6s7-7-7-|-4s5-5-5-4---4---|-6s7-7-7-6s7-7-7-|-6s7-7-7-6s7-7-7-| 
|-----------------|-----------------|-----------------|-----------------| 
|-----------------|-----------------|-----------------|-----------------| 
 
 
  D                                  C 
  Q   Q   E E Q     E  E Q  E E Q    Q  Q  E E E E   Q  Q  E E E E 
  |   |   | | |     |  | |  | | |    |  |  | | |     |  |  | | | | 
  /   /   / / /     /  / /  / / /    /  /  / / /     /  /  / / / / 
 
  Gtr IV 
  E E E E H        +W                W               W 
|----------------|-----------------|---------------|---------------| 
|----------------|-----------------|---------------|---------------| 
|-6h7---7-7------|-(7)-------------|---------------|---------------| 
|-7---7---7------|-(7)-------------|---------------|---------------| 
|----------------|-----------------|---------------|---------------| 
|----------------|-----------------|---------------|---------------| 
 
 
  D                                  C 
  Q   Q   E E Q     Q   Q  E E E E   Q   Q   E E Q     E E Q   E E Q 
  |   |   | | |     |   |  | | |     |   |   | | |     | | |   | | | 
  /   /   / / /     /   /  / / /     /   /   / / /     / / /   / / / 
 
  E E E E E E E E   E E Q  E E Q     E E E E E E E E   E E E E E E E E 
|-----------------|----------------|-----------------|-----------------| 
|-----------------|----------------|-----------------|-----------------| 
|-6s7-7-7-6s7-7-7-|-6s7-7--6s7-7---|-4s5-5-5-4s5-5-5-|-4s6-6-6-4s6-6-6-| 
|-6s7-7-7-6s7-7-7-|-6s7-7--6s7-7---|-4s5-5-5-4s5-5-5-|-4s6-6-6-4s6-6-6-| 
|-----------------|----------------|-----------------|-----------------| 
|-----------------|----------------|-----------------|-----------------| 
 
 
  E 
  Q   Q   E E Q     Q   Q   E E Q     Q   Q   E E Q     Q   Q   E E Q 
  |   |   | | |     |   |   | | |     |   |   | | |     |   |   | | | 
  /   /   / / /     /   /   / / /     /   /   / / /     /   /   / / / 
 
  E E E E E E E E   E E E E E E E E   E E E E E E E E   E E E E Q   e  E 
|-----------------|-----------------|-----------------|------------------|| 
|-----------------|-----------------|-----------------|---------9--------|| 
|-5s9-9-9-8s9-9-9-|-8s9-9-9-8s9-9-9-|-8s9-9-9-8s9-9-9-|-8s9-9-9-9---9\---|| 
|-5s9-9-9-8s9-9-9-|-8s9-9-9-8s9-9-9-|-8s9-9-9-8s9-9-9-|-8s9-9-9-9---9\---|| 
|-----------------|-----------------|-----------------|------------------|| 
|-----------------|-----------------|-----------------|------------------|| 
 
 
 2nd Chorus 
  A                                 G                 D 
  Gtrs II, III 
  Q   Q      Q   Q    Q  Q  Q  Q    Q   Q   E E E E   Q  Q   E E Q 
  |   |      |   |    |  |  |  |    |   |   | | | |   |  |   | | | 
  /   /      /   /    /  /  /  /    /   /   / / / /   /  /   / / / 
 
  Gtr IV 
  E E E  E  +Q   Q    H     H       E E E E E E E E   Q  E E Q   E E 
|-------------------|-------------|-----------------|----------------| 
|-------------------|-------------|-------8-------8-|------7---------| 
|-----9-------------|-------------|-----7-------7---|----7-------7s9-| 
|-----9h11-(11)-----|-------9-----|-7h9-----7h9-----|-7------7-------| 
|-x-----------------|-------------|-----------------|----------------| 
|-------------------|-------------|-----------------|----------------| 
 
 
  A                                        G                 D 
  Q    Q    Q    Q      Q    Q    Q  E E   Q   Q   Q   E E   Q  Q    E  E Q 
  |    |    |    |      |    |    |  | |   |   |   |   | |   |  |    |  | | 
  /    /    /    /      /    /    /  / /   /   /   /   / /   /  /    /  / / 
 
  E  E E  E E  E E  E   E  E E  E Q  E E   E E E E E E E E   Q  E E +H 
|---------------------|------------------|-----------------|-----------------| 
|--------10--------10-|--------10--------|-------8-------8-|------7-(7)------| 
|------9---------9----|------9-------9---|-----7-------7---|----7------------| 
|-9h11------9h11------|-9h11------9------|-7h9-----7h9-----|-7---------------| 
|---------------------|------------------|-----------------|-----------------| 
|---------------------|------------------|-----------------|-----------------| 
 
 
  Bm                Bm/A   Bm        E 
  Q   Q   Q   Q     Q  Q   Q  Q       Q  Q    Q   Q     Q   Q       Q    E E 
  |   |   |   |     |  |   |  |       |  |    |   |     |   |       |    | 
  /   /   /   /     /  /   /  /       /  /    /   /     /   /       /    / 
 
  E E E E E E E E   Q  E E H       a  Q  e E  e E e E   E E E  a E +E  E E E 
|-----------------|--------------|--------------------|----------------------| 
|-------7-------7-|------7-------|--------------------|-7--------------------| 
|-----7-------7---|----7---------|----------------9---|---9------------------| 
|-7h9-----7h9-----|-7------9-----|-------9---11-------|-------11s9-(9)-7-----| 
|-----------------|--------------|-9s11---------------|------------------9---| 
|-----------------|--------------|--------------------|----------------------| 
 
 
  W              W               W 
  W              W               W 
|--------------|---------------|-------------| 
|--------------|---------------|-------------| 
|--------------|---------------|-------------| 
|-7------------|---------------|-------------| 
|--------------|---------------|-------------| 
|--------------|---------------|-------------| 
| 
| Gtr III 
| Q   H     Q    E E Q  E E Q    E E H. 
|--------------|------------2--|-------------| 
|-----2-----2--|-----3------3--|-----2-------| 
|-----2--------|---0-0----0-2--|-----2-------| 
|-----2--------|---0-0----0-0--|-----2-------| 
|-0------------|---------------|-x---0-------| 
|--------------|-x---3--x---2--|-------------| 
| 
| Gtr II 
| E E H.         E E Q  E E Q    Q   H. 
|--------------|------------2--|-----0-------| 
|-----2--------|-0---3------3--|-----2-------| 
|-----2--------|-x-0-0----0-2--|-----2-------| 
|---2-2--------|-x-0-0--x-0-0--|-----2-------| 
|-0------------|--------x------|-----0-------| 
|--------------|-----3---------|-------------| 
 
 
                   Solo 
                    A 
                    Gtr II 
  W                 Q   Q   E E E E 
                    |   |   | | | | 
                    /   /   / / / / 
 
                    Gtr IV 
  H      Q   E E    E E E E E E E E 
|----------------||-----------------| 
|----------------||-----------------| 
|----------------||-----2-x-2---2---| 
|--------------2s||=4-x-------------| 
|----------------||-----------------| 
|----------------||-----------------| 
| 
| E E Q  E E Q      Q   Q   Q   E E 
|-----2----0-2---||-----------------| 
|-3---3------3---||-----2-------2---| 
|-x---2------2---||-----2-------2---| 
|-x---2------0---||-----2-------2---| 
|-----0--x-------||-0---------------| 
|-3--------------||---------0-------| 
| 
| E E Q  E E Q      W 
|------------2---||-----------------| 
|---0-3----3-3---||-----------------| 
|---0-0----2-2---||-----------------| 
|-----0--x---0---||-----------------| 
|-x------x-------||-----------------| 
|-----3------2---||-----------------| 
 
 
  G       D           A                   G       D           A 
  E E E E E E E E     Q   Q    E  E E E   E E E E  E  E Q     Q   Q   E E E E 
  | | | | | | |       |   |    |  | |     | | |    |  | |     |   |   | | | 
  / / / / / / /       /   /    /  / /     / / /    /  / /     /   /   / / / 
 
  E E E E E E E E   a E E E E +E  E E E   E E E E +E  E E E   E E E E E E E E 
|-----------------|---------------------|-------------------|------------------| 
|-----5---5-----5-|---------------------|-------------------|------------------| 
|-4s6-------4s6---|-6s4-2---2-(2)---2-0-|-5-4---2-(2)-------|------------------| 
|-----------------|-------4-------4-----|-------------4-----|---2-4-2-4-2-4----| 
|-----------------|---------------------|-----------------3-|-4----------------| 
|-----------------|---------------------|-------------------|------------------| 
| 
| Q   Q   Q   Q       Q   Q    Q    E E   Q   Q    Q    E E   Q   Q   Q   E E 
|-------------2---|---------------------|-------------------|------------------| 
|-----3-------3---|-------2---------2---|-----3---------3---|-----2-------2----| 
|-----0-------2---|-------2---------2---|-----0---------2---|-----2-------2----| 
|-----0---0-------|-------2---------2---|-----0---------0---|-----2-------2----| 
|-----------------|---0-----------------|-------------------|-0----------------| 
|-3---------------|------------0--------|-3--------2--------|---------0--------| 
 
 
  G       D           A 
  E E Q   E E   E E   Q     Q     E   E   Q 
  | | |   | |   |     |     |     |   |   | 
  / / /   / /   /     /     /     /   /   / 
 
                      |-3-| |-3-| |--3--| |-3-| 
  E E E E E E a Q     E E E E E E E E   E E E E 
|-------------------|---------------------------| 
|-------------------|---5---5---5---5-------7-9-| 
|-5-4---2-2---4-6---|-6---6---6---6-----6-6-8-9-| 
|-------------------|---------------------------| 
|-------------------|---------------------------| 
|-------------------|---------------------------| 
| 
| Q   Q   Q     E E   Q     Q     Q       Q 
|-------------------|---------------------------| 
|-----3---------3---|-------2-------------2-----| 
|-----0---------2---|-------2-------------2-----| 
|-----0---------0---|-------2-------------2-----| 
|-------------------|-0-------------------------| 
|-3-------2---------|-------------0-------------| 
 
 
              H=94H=94(8=s8) 
                        D 
                        Gtrs II, III 
  Q     Q     E E E E   Q   Q   E   E Q 
  |     |     | | |     |   |   |   | | 
  /     /     / / /     /   /   /   / / 
 
  |-3-| |-3-|                   |3| 
  E E E E E E E E E E   E E E E E Q   E E 
|---------------------|-------------------| 
|---8---8-8-8-8-8-0---|-------------------| 
|-9-9-9-9-9-9-9-9-0---|---2-4-2-4s5---2---| 
|-------------------3h|=4-----------------| 
|---------------------|-------------------| 
|---------------------|-------------------| 
| 
| Q     Q     Q   E E   W 
|---------------------|-------------------| 
|-------2---------2---|-------------------| 
|-------2---------2---|-------------------| 
|-------2---------2---|-------------------| 
|-0-------------------|-------------------| 
|-------------0-------|-------------------| 
 
 
                    C                                       D 
  E E Q   E E Q      Q    Q   E E E E   Q   Q    E  E E E   Q   Q   E E Q 
  | | |   | | |      |    |   | | |     |   |    |  | | |   |   |   | | | 
  / / /   / / /      /    /   / / /     /   /    /  / / /   /   /   / / / 
 
  E E E E E E E E   +E  E E E E E E E   E E E E +E  Q   E   E E E E E E E E 
|-----------------|-------------------|-------------------|-----------------| 
|-----------------|-------------------|-------------------|-----------------| 
|-2-4---2-2-2-----|-----------0-0-2-0-|-3-2---2-(2)-0-----|---2-4-2-5-2-5-2-| 
|-----------------|-------1-2---------|-----------------3s|=4---------------| 
|---------------3-|-(3)-3-------------|-------------------|-----------------| 
|-----------------|-------------------|-------------------|-----------------| 
 
 
                          C 
  Q       Q    E  E E E   Q  Q   E E Q 
  |       |    |  | |     |  |   | | | 
  /       /    /  / /     /  /   / / / 
 
               ~~~ 
  |-3-| 
  E E E a E E +Q    E E   Q  E E E E E E 
|-----------------------|----------------| 
|-----------3-(3)---3---|----------------| 
|-5s4-------------------|--------0-0-2-0-| 
|-------3s4-------------|----1-2---------| 
|-----------------------|-3--------------| 
|-----------------------|-0--------------| 
 
 
                      E 
  E E Q    E  E Q     Q   Q   E E Q 
  | | |    |  | |     |   |   | | | 
  / / /    /  / /     /   /   / / / 
 
  E Q   E +E  E E E   E E E E E E E E 
|-------------------|------------------| 
|-------------------|------------------| 
|-3-2---0-(0)-0-----|-2---2---2-4---4s=| 
|---------------3s4-|---4--------------| 
|-------------------|------------------| 
|-------------------|------------------| 
 
 
  Q   Q    E  E Q     Q   Q   E E Q 
  |   |    |  | |     |   |   | | | 
  /   /    /  / /     /   /   / / / 
 
  e E E E +E  E E E   E E E E E E E E 
|-------------------|-------------5-7b9-| 
|-------------------|-5---5---5-7-------| 
|-6-4---4-(4)-4-4s7-|---6---------------| 
|-------------------|-------------------| 
|-------------------|-------------------| 
|-------------------|-------------------| 
 
 
                         3rd Chorus 
                          A 
  Q   Q    E  E Q          Q    Q   Q  Q 
  |   |    |  | |          |    |   |  | 
  /   /    /  / /          /    /   /  / 
 
  E E E E +Q    E E       +E  E H. 
|---7---5-(5)---5-7b9==||=(7)r7-5---------| 
|----------------------||-----------------| 
|----------------------||-----------------| 
|----------------------||-----------------| 
|----------------------||-----------------| 
|----------------------||-----------------| 
 
 
                G                 D                A 
  Q  Q  Q  Q    Q   Q  E E  E E   Q   Q  E E Q     Q    Q    Q    Q 
  |  |  |  |    |   |  | |  | |   |   |  | | |     |    |    |    | 
  /  /  /  /    /   /  / /  / /   /   /  / / /     /    /    /    / 
 
                Gtr IV 
  W             E E Q  E Q.       E E Q  Q   E E   E  E E  E E  E E  E 
|-------------|-----------------|----------------|---------------------| 
|-------------|-----------------|----------------|--------10--------10-| 
|-------------|-----7-----------|-----7--7---7---|-9----9---------9----| 
|-------------|-7h9----7h9------|-7-9----7---7---|-9h11------9h11------| 
|-------------|-----------------|----------------|---------------------| 
|-------------|-----------------|----------------|---------------------| 
 
 
                      G                 D                Bm 
  Q    Q     Q  E E   Q   Q   Q   E E   Q  Q   E E Q     Q   Q  Q  Q 
  |    |     |  | |   |   |   |   | |   |  |   | | |     |   |  |  | 
  /    /     /  / /   /   /   /   / /   /  /   / / /     /   /  /  / 
 
  E  E E  E  Q  E E   E E E E E E E E   Q  E E Q   E E   E E Q  H 
|-------------------|-----------------|----------------|--------------| 
|--------10---------|-------8-------8p|=7----7-------7-|--------------| 
|------9-----9--9---|-----7-------7---|--------7-------|-----7--------| 
|-9h11------11------|-7h9-----7-9-----|----7-------7---|-7h9----7-----| 
|-------------------|-----------------|----------------|--------------| 
|-------------------|-----------------|----------------|--------------| 
 
 
  Bm/A   Bm        E 
  Q   Q  Q  Q       Q  Q    Q   Q     Q   Q       Q    E E 
  |   |  |  |       |  |    |   |     |   |       |    | 
  /   /  /  /       /  /    /   /     /   /       /    / 
 
  E E Q  H       a  Q  e E  e E e E   E E E  a E +E  E E E 
|--------------|--------------------|----------------------| 
|--------------|--------------------|-7--------------------| 
|-----7--------|----------------9---|---9------------------| 
|-7h9----9-----|-------9---11-------|-------11s9-(9)-7-----| 
|--------------|-9s11---------------|------------------9---| 
|--------------|--------------------|----------------------| 
 
 
     A                 G       D 
  Gtrs II, III 
  Q  Q     +Q.     E   E E Q   E E Q 
     |      |      |   |   |   | | | 
     /      /      /   x   /   x / / 
 
  Q  E  E  +Q    E E   E E E E E E E E 
|--------------------|-----------------|| 
|----9h10-(10)-------|-7h8-----8p7-----|| 
|------------------9-|-------7---7-----|| 
|-7--9-11-(11)--11---|-----9-------7---|| 
|--------------------|-----------------|| 
|--------------------|-----------------|| 
 
 
 3rd Verse 
  A                     G       D 
  Q  Q      E  E  E E   E E E E E E E E 
  |  |      |  |  | |   | | | | | | | 
  /  /      /  /  / /   / / / / / / / 
 
  Q  E  E  +E  E  E E   E E E E E E Q 
|---------------------|-----------------| 
|----9h10-(10)--------|-7h8-----8p7-----| 
|--------------9------|-------7---7-----| 
|----9-11-(11)---11---|-7-9-9-------9---| 
|---------------------|-----------------| 
|---------------------|-----------------| 
 
 
  A                     G       D        A                    G       D 
  Q  Q      E  E  E E   E E E E E E Q    Q   Q    E  E  E E   E E Q   E E E E 
  |  |      |  |  |     | | |   | | |    |   |    |  |  |     | | |   | | | 
  /  /      /  /  /     / / /   / / /    /   /    /  /  /     / / /   / / / 
 
  Q  E  E  +E  E  E E   E E E E E E Q    Q   Q   +E  E  E E   E E E E E E Q 
|---------------------|----------------|--------------------|-----------------| 
|----9h10-(10)--------|-7h8-----8p7----|----10--(10)--------|-7h8-----8-7-----| 
|--------------9------|-------7---7----|-------------9------|-------7---7-----| 
|----9-11-(11)---11---|-7-9-9-------9--|----11--(11)---11---|-7-9-9-------9---| 
|---------------------|----------------|--------------------|-----------------| 
|---------------------|----------------|--------------------|-----------------| 
 
 
  A 
  Q  Q      E  E  Q      Q     Q    E  E  E  E 
  |  |      |  |  |      |     |    |  |  | 
  /  /      /  /  /      /     /    /  /  / 
 
  Q  E  E  +Q     Q     +E  E  E E  E  E  E  E 
|--------------------|-------------------------| 
|----9h10-(10)-------|------9h10------10-------| 
|--------------------|-----------9-------------| 
|----9-11-(11)---11--|-(11)---11---11----11\---| 
|--------------------|-------------------------| 
|--------------------|-------------------------| 
 
 
  D 
  Q  Q    E  E Q    E E Q  E E Q 
  |  |    |  | |    | | |  | | | 
  /  /    /  / /    / / /  / / / 
 
  Q  E E +Q    Q    W 
|-----------------|---------------| 
|--------------8--|-7-------------| 
|--------------7--|-7-------------| 
|----7-9-(9)------|-7-------------| 
|-----------------|---------------| 
|-----------------|---------------| 
 
 
  C                                   D 
  Q  Q   E E E E   Q    Q   E E E E   Q  Q   E E Q    Q   Q   E E E E 
  |  |   | | |     |    |   | | | |   |  |   | | |    |   |   | | | 
  /  /   / / /     /    /   / / / /   /  /   / / /    /   /   / / / 
 
  Q  E E E E E E   Q  a E E Q   Q     Q  E E E E Q    E E E E Q   e E 
|----------------|------------------|---------------|------------------| 
|--------------5-|------------------|----------8p7--|-------8p7--------| 
|----5-------5---|-5----------------|--------7------|-----7---7--------| 
|-5----5-5h7-----|-5----------------|----7h9--------|-7h9---------7----| 
|----------------|----7s5---3-------|---------------|------------------| 
|----------------|------------------|---------------|------------------| 
 
 
  C                                  E 
  Q   Q   E E Q     E E Q  E E Q      Q    Q   E  E Q 
  |   |   | | |     | | |  | | |      |    |   |  | | 
  /   /   / / /     / / /  / / /      /    /   /  / / 
 
  E E e E E E e E   E E Q  Q   E E   +E  Q   E E  E e E 
|-----------------|----------------|--------------------| 
|-----------------|----------------|--------------------| 
|-----5-------5---|-----5----------|----------------9---| 
|-5h7-5---5h7-----|-----5----------|-----7-----9s11-----| 
|-----------------|-5h7----3---7s9-|-(9)----------------| 
|-----------------|----------------|--------------------| 
 
 
                                                D.S. al Coda 
  Q   Q   E  E  Q      Q    Q    E E  Q       Q   Q   E E Q 
  |   |   |  |  |      |    |    | |  |       |   |   | | | 
  /   /   /  /  /      /    /    / /  /       /   /   / / / 
 
  Q.    E E  E  E  E   E  Q    E Q    Q    a  Q   Q   Q   Q 
|--------------------|-------------------|--------------------|| 
|-----------10-10-10-|--------10-----10--|---10--10--10---8---|| 
|-9-----9-9----------|-9h11------9-------|-9h11---9---9---7---|| 
|--------------------|-------------------|--------------------|| 
|--------------------|-------------------|--------------------|| 
|--------------------|-------------------|--------------------|| 
 
 
  & 
  E                                      A 
                                         Gtrs I, II, III 
  Q    Q    Q  Q    Q    Q     Q   E E    Q     Q     Q     Q 
  |    |    |  |    |    |     |   |      |     |     |     | 
  /    /    /  /    /    /     /   /      /     /     /     / 
 
                                         Gtr V 
  E  E E  E H       E  E E  E  E E E E    E  E  E  E  E  E  E  E 
|-----------------|--------------------|-------12-12-12----12-12-| 
|--------10p9-----|--------10-10p9-9---|-12h14-14-14-12h14-14-14-| 
|------9----------|------9-------------|-13-14-------------------| 
|-9h11------9-----|-9h11------11-9-----|-------------------------| 
|-----------------|--------------------|-------------------------| 
|-----------------|--------------------|-------------------------| 
 
 
                           G 
   Q     Q     Q     Q      Q     Q     E  E  E  E 
   |     |     |     |      |     |     |  |  |  | 
   /     /     /     /      /     /     /  /  /  / 
 
   E  E  E  E  E  E  E E    E  E  E  E  E  E  E  E 
|-12----12-12-12----12---|-10----10-10-10----10-10-| 
|-12h14-14-14-12h14-14---|-10h12-12-12-10h12-12-12-| 
|------------------------|-------------------------| 
|------------------------|-------------------------| 
|------------------------|-------------------------| 
|------------------------|-------------------------| 
 
 
  D                         A 
   Q     Q     E  E  Q       Q     Q     Q     Q 
   |     |     |  |  |       |     |     |     | 
   /     /     /  /  /       /     /     /     / 
 
   E  E  E  E  E  E  E  E    E  E  E  E  E  E  E  E 
|--9--9--9--9--9--9--9--9-|-12----12-12-12----12-12-| 
|-10-10-10-10-10-10-10-10-|-12h14-14-14-12h14-14-14-| 
|-------------------------|-------------------------| 
|-------------------------|-------------------------| 
|-------------------------|-------------------------| 
|-------------------------|-------------------------| 
 
 
                           G 
   Q     Q     Q     E E    Q     Q     Q     E  E 
   |     |     |     | |    |     |     |     |  | 
   /     /     /     / /    /     /     /     /  / 
 
   E  E  E  E  E  E  E E    E  E  E  E  E  E  E  E 
|-12----12-12-12----12---|-10----10-10-10----10-10-| 
|-12h14-14-14-12h14-14---|-10h12-12-12-10h12-12-12-| 
|------------------------|-------------------------| 
|------------------------|-------------------------| 
|------------------------|-------------------------| 
|------------------------|-------------------------| 
 
 
  D                         Bm 
   Q     Q     E  E  Q       Q   Q   Q   Q 
   |     |     |  |  |       |   |   |   | 
   /     /     /  /  /       /   /   /   / 
 
   E  E  E  E  E  E  E  E    Q   Q   Q   Q 
|--9--9--9--9--9--9--9--9-|-10--10--10--10--| 
|-10-10-10-10-10-10-10-10-|-12--12--12--12--| 
|-------------------------|-----------------| 
|-------------------------|-----------------| 
|-------------------------|-----------------| 
|-------------------------|-----------------| 
 
 
  Bm/A    Bm        E 
   Q   Q   Q   Q    Q     Q  Q  E E   Q    Q       Q   E E 
   |   |   |   |    |     |  |  | |   |    |       |   | 
   /   /   /   /    /     /  /  / /   /    /       /   / 
 
                                      Gtr I 
   Q   Q   Q   Q    E  Q.    H        E  E E  E  a E E E E 
|-10--10--10--10--|-----------------|-----------------------|| 
|-12--12--12--12--|-9h10-----9------|-9h10---10-------------|| 
|-----------------|-9--------9------|-9----9----------------|| 
|-----------------|-9-11-----9------|-9-11------11p9-7------|| 
|-----------------|-----------------|------------------9----|| 
|-----------------|-----------------|-----------------------|| 
 
 
 Outro 
  Moderately Q=94 
  A 
 4/4 
  Gtr V 
  W                                   W 
  | 
  / 
 
  Gtr II                                       Gtrs II, V 
  E    E    E     E E E      E    E   S  S S S  E      E S S  S S  S  S  S S 
|-----------------------------------|--------------------------------------0-| 
|-----------------------------------|---------------------------7--------7---| 
|------2----------2---2-----------2-|------2-----------2------7-------7------| 
|-----------------------------------|----2---2-------------7-----------------| 
|-0---------0-------0--------0------|-0---------0--------0---------0---------| 
|-----------------------------------|----------------------------------------| 
| 
| Gtr III 
| S S  E    S   S E E E      E    E   S  S E    E      E S S  S S  S  S  E 
|-----------------------------------|---------------------------2------------| 
|-----------------------------------|---------------------------------3------| 
|------2----------2---2-----------2-|------2-----------2------2----------2---| 
|---2-----------2-------------------|-2h=5---------------2h4-------4---------| 
|-0---------0-------0--------0------|-----------0------------------0---------| 
|-----------------------------------|----------------------------------------| 
| 
| Gtr IV 
| S S  S S +S   S E E S  S  +S  S E   S  S S S +S   E.   E    S S +S  E. 
|--------7-(7)----------------------|--------7-(7)--------------------7------| 
|-----10-------10-------10-(10)-----|---10---------10--------10--------------| 
|---9-------------9---9-----------9-|------9--------------------7-(7)--------| 
|-7-----------------7-----------7---|-7------------------7-------------------| 
|-----------------------------------|----------------------------------------| 
|-----------------------------------|----------------------------------------| 
 
 
  W 
  S  S S  S S  S S S S  S E   S  S E 
|-------------------------------------| 
|--------10---------------------------| 
|----9-----------9------9--------9----| 
|------7-------7---7------7--------7--| 
|-0---------0--------0--------0-------| 
|-------------------------------------| 
| 
| E    E    E    E   E    S S E    E 
|-------------------------------------| 
|-------------------------------------| 
|------2---------2--------2--------2--| 
|---------------------------2---------| 
|-0---------0--------0--------0-------| 
|-------------------------------------| 
| 
| S  S S  S S  S E   S  S S S S  S E 
|---------7-----------------7---------| 
|---10--------10-------10-------10----| 
|------9---------9--------9--------9--| 
|-7---------7--------7--------7-------| 
|-------------------------------------| 
|-------------------------------------| 
 
 
  S  S S S  S   S  S S S S  S S  S  S  S S   S  S S  S  S   S  S  S S S  S  S  E     E 
|----------------------------------------0-|-------------------------------------------| 
|-8------8-----------8p7------7------------|--------10-----------10--------10----------| 
|----9-------------9-----7----------7------|----9-----------9---------9----------------| 
|------7--------7-----------7----------7---|------7------------7---------7-----------7-| 
|-0---------0----------0---------0---------|-0----------0-----------0----------0-------| 
|------------------------------------------|-------------------------------------------| 
| 
| S  S E    E      E   S S  S S  S  S  E     E    E     S   S  E    S S  E     E     E 
|-----------------------------2------------|-------------------------------------------| 
|-----------------------------------3------|-------------------------------------------| 
|------2-----------2--------2----------2---|------2------------2---------2-------------| 
|-2h=5-----------------2h4-------4---------|----------------2---------2--------------2-| 
|-----------0--------------------0---------|-0----------0-----------0----------0-------| 
|------------------------------------------|-------------------------------------------| 
| 
| S  S S S +S   E.     E    S S +S  E.       S  S S  S +S   E.      E    S  S +S  E. 
|--------7-(7)----------------------7------|---------7-(7)------------------------7----| 
|---10---------10----------10--------------|---10----------10-----------10-------------| 
|------9----------------------7-(7)--------|------9-------------------------7-(7)------| 
|-7--------------------7-------------------|-7----------------------7------------------| 
|------------------------------------------|-------------------------------------------| 
|------------------------------------------|-------------------------------------------| 
 
 
  E    S S  S   S  S S S S  S S  S  S  S S 
|----------------------------------------0--| 
|--------8-----------8--------7-------------| 
|------9--------9--------7----------7-------| 
|------7-----------7--------7----------7----| 
|-0---------0----------0---------0----------| 
|-------------------------------------------| 
| 
| S  S E    E      E   S S  E    E     E 
|-------------------------------------------| 
|-------------------------------------------| 
|------2-----------2--------2----------2----| 
|-2h=5-----------------2h4------------------| 
|-----------0--------------------0----------| 
|-------------------------------------------| 
| 
| S  S S S +S   E.     E    S S +S  E. 
|--------7-(7)----------------------7-------| 
|---10---------10----------10---------------| 
|------9----------------------7-(7)---------| 
|-7--------------------7--------------------| 
|-------------------------------------------| 
|-------------------------------------------| 
 
 
  S  S S  S  S   S  S  S  S S  S  S  E     E   S S S S S S S S S S S S S S S S 
|--------------------------------------------|---------------------------------| 
|--------10-----------10---------10----------|-------7-------7-------7-------7-| 
|----9-----------9----------9----------------|---7-------7-------7-------7-----| 
|------7------------7----------7-----------7-|-----7-------7-------7-------7---| 
|-0----------0------------0----------0-------|-0-------0-------0-------0-------| 
|--------------------------------------------|---------------------------------| 
| 
| S  S E     E      E     S S  E     E     E   S S E   E   E   E   E   E   E 
|--------------------------------------------|---------------------------------| 
|--------------------------------------------|---------------------------------| 
|----2--------------2----------2-----------2-|-----2-------2-------2-------2---| 
|------------2--------------2----------------|-2h4-----4-------4-------4-------| 
|-0----0------------------0----------0-------|---------0-------0-------0-------| 
|--------------------------------------------|---------------------------------| 
| 
| S  S S  S +S   E.       E    S  S +S  E.     E   S S S E   S S E   S S S E 
|---------7-(7)-------------------------7----|-----------0-----------0---------| 
|---10----------10-------10---10-------------|-----7---------7-----------7-----| 
|------9--------------------------7-(7)------|-------7-----------7---------7---| 
|-7------------------------------------------|-7-------7-------7-------7-------| 
|--------------------------------------------|---------------------------------| 
|--------------------------------------------|---------------------------------| 
 
 
  Gtrs II, IV 
  S S S S S S S S S S S S S S S S 
|---------------0-----------------| 
|-------6-----------6-------6-----| 
|---7-------7-----------7-------7-| 
|-----7-------7-------7-------7---| 
|-0-------0-------0-------0-------| 
|---------------------------------| 
| 
| Gtrs III, V 
| E   E   E   E   E   E   E   E 
|---------------------------------| 
|---------------------------------| 
|-----2-------2-------2-------2---| 
|-3-------3-------3-------3-------| 
|-0-------0-------0-------0-------| 
|---------------------------------| 
 
 
                          H.=H 
                                    |-3-| |-3-| 
  S S S S S S S S S S S S S S S S   E E E E E E  H 
|---------------0-----------------|-------------^0----*| 
|-------6-----------6-------6-----|-------0---0-^0----*| 
|---7-------7-----------7-------7-|-----6---6---^6----*| 
|-----6-------6-------6-------6---|---7---------^7----*| 
|-0-------0-------0-------0-------|-0-----------^0----*| 
|---------------------------------|-------------------*| 
| 
|                                   |-3-| |-3-| 
| E   E   E   E   E   E   E   E     E E E E E E  H 
|---------------------------------|-------------^0----*| 
|---------------------------------|-------0---0-^0----*| 
|-----1-------1-------1-------1---|-----6---6---^6----*| 
|-2-------2-------2-------2-------|---7---------^7----*| 
|-0-------0-------0-------0-------|-0-----------^0----*| 
|---------------------------------|-------------------*| 
 
 
Duration Legend 
--------------- 
W - whole; H - half; Q - quarter; E - 8th; S - 16th; T - 32nd; X - 64th; a - acciaccatura 
+ - note tied to previous; . - note dotted; .. - note double dotted 
Uncapitalized letters represent notes that are staccato (1/2 duration) 
Irregular groupings are notated above the duration line 
Duration letters will always appear directly above the note/fret number it represents the 
duration for.  Duration letters with no fret number below them represent rests.  Multi- 
bar rests are notated in the form Wxn, where n is the number of bars to rest for.  Low 
melody durations appear below the staff 
 
Tablature Legend 
---------------- 
 h   - hammer-on 
 p   - pull-off 
 b   - bend 
 pb  - pre-bend 
 r   - bend release (if no number after the r, then release immediately) 
 /\  - slide into or out of (from/to "nowhere") 
 s   - legato slide 
 S   - shift slide 
  - natural harmonic 
n  - artificial harmonic 
n(n) - tapped harmonic 
 ~   - vibrato 
 tr  - trill 
 T   - tap 
 TP  - trem. picking 
 PM  - palm muting 
\n/  - tremolo bar dip; n = amount to dip 
 \n  - tremolo bar down 
 n/  - tremolo bar up 
/n\  - tremolo bar inverted dip 
 =   - hold bend; also acts as connecting device for hammers/pulls 
 <>  - volume swell (louder/softer) 
 x   - on rhythm slash represents muted slash 
 o   - on rhythm slash represents single note slash 
 
Misc Legend 
----------- 
 |  - bar 
||  - double bar 
||o - repeat start 
o|| - repeat end 
*|  - double bar (ending) 
 :  - bar (freetime) 
 $  - Segno 
 &  - Coda 
Tempo markers -  = BPM(8/16=s8/s16), where s8 = swing 8ths, s16 = swing 16ths 

            
            
Suggest correction
Creating personal tab
Creating personal tab
You can edit any tab online and save it as your Personal.

You can edit, replace or remove any tab part or add personal notes – all changes will be seen only by you.

Personal tabs can be accessed anytime from any device, even offline.
Learn more »
Give kudos to tab author, rate the tab!
1 2 3 4 5
comments
print report bad tab
guest
Wanna post a correction for this tab? Suggest correction