Oops, an error
Loading. Please wait.

Amie intro tab

version 2
version 2

Intro

  • My version is different from the rest, because I m... Show more

Interactive

1,060 views 33 this week
no commentswrite comment
1 2 3 4 5
x 4
add to favorites
×
Save as Personal and add changes to this tab that will be seen only by you. Learn more ›
×
You can save this tab as Personal to edit and correct it or add notes. All changes will be seen only by you. Learn more »
launch autoscroll
font size
0
reset
how to read this tab
guitar tuner
edit
Autoscroll
slow
fast
+/-
esc
set tempo
stop
Author
Difficulty
About this tab version
My version is different from the rest, because I made my tab easier to read. I made my tab super simple, and even put a key at the bottom. I am trying to make sure that even the beginner guitar players can figure this song out. I learned this song fast, and it should be an easy learn for most people. With my very simple, and well explained easy to read tab, I want to make sure that everyone who wants to this intro can, and will. Was this info helpful? Yes No
Amie Intro
By: Pure Praire League


[Intro]

e|---------------------------------------------------------------------------|
B|--------------------------------5-7-5--------------------------------------|
G|--------2-2-----4--2-----4/6--------------6/4---2---------2-2--4-2--4/6----|
D|-2h4------------------------------------------------2h4--------------------|
A|---------------------------------------------------------------------------|
E|---------------------------------------------------------------------------|

e|----------------------------------5-----5-----5----------------------------|
B|-----------------------------5-7--5--7--5--7--5--7--5--7-5--5------5--7--5-|
G|-2-2-----------2-2-4-2-4/6-------------------------------------------------|
D|--------2h4----------------------------------------------------------------|
A|---------------------------------------------------------------------------|
E|---------------------------------------------------------------------------|

e|---------------------------------------------------------------------------|
B|---------------------------------------------------------------------------|
G|---6/4---2-----------------------------------------------------------------|
D|------------4--------------------------------------------------------------|
A|--------------0------------------------------------------------------------|
E|---------------------------------------------------------------------------|



************************************

| h  Hammer-on
| /  Slide up

************************************
Suggest correction
Creating personal tab
Creating personal tab
You can edit any tab online and save it as your Personal.

You can edit, replace or remove any tab part or add personal notes – all changes will be seen only by you.

Personal tabs can be accessed anytime from any device, even offline.
Learn more »
comments
print report bad tab
guest
You may want to rate the tab now too:
select rating
Wanna post a correction for this tab? Suggest correction