Oops, an error
Loading. Please wait.

Amie Chords

version 3
version 3

Whole song

Interactive

74,109 views 171 this week
no commentswrite comment
1 2 3 4 5
accurate
x 12
add to favorites
launch autoscroll
font size
0
reset
transpose
0
reset
simplify chords
display chords
guitar tuner
Autoscroll
slow
fast
+/-
esc
set tempo
stop
Help us to improve Ultimate-Guitar.com Take our survey!
×
Author
Difficulty
cowboydwb 236
intermediate
Amie - Pure Prairie League
Tabbed by:Wesley Brown
Email:wes_brown20@yahoo.com
Notes: This song is fast-paced in some areas and might require listening to the 
song while playing. I hope you enjoy!

Tuning:Standard

[Intro]

e|----5-----5-----5-----5--------------------------------------------------|
B|----5-----5-----5-----5------------------------------5-7-5---------------|
G|-2-----2-----2-----2-------------2------2--4--2--4/6-------6\4-2-----2---|
D|---------------------------2--4----------------------------------2-4-----|
A|-------------------------------------------------------------------------|
E|-------------------------------------------------------------------------|

e|--------------------------------------------------5-------------------5--|
B|--------------------------------------5-7-5-7-5-7---7-5-7-5-5-5-5-5-7----|
G|-2-4-2--4/6-4-4---------2--2-4-2--4/6------------------------------------|
D|--------------------2-4--------------------------------------------------|
A|-------------------------------------------------------------------------|
E|-------------------------------------------------------------------------|

e|----7b-7-5--------0---------3-------2------0--------3-------2------------|
B|--7---------------2---------3-------3------2--------3-------3------------|
G|------------------2------0--0----2--2------2-----0--0----2--2------------|
D|------------------2------0--0--x-0--0------2-----0--0--x-0--0------------|
A|---------------0-------x----2--x--------x--0---x----2--x-----------------|
E|-----------------------x----3------------------x----3--------------------|


[Verse]

  A              G           D       A        G D 
  I can see why  you think  you bel ong to me.         
  A                    G       D          A                              D 
I  never tried to  make you  think or  let you see one thing for  yourself. 
                 C                              D 
But now you're  off with someone else and I'm al one. 
            C                                     E 
You see I  thought that I might keep you for my  own 


[Chorus:]

A          G               D 
  Amie,  what you wanna  do? 
A            G                    D  
  I think,  I could stay with you 
             Bm       Bm/A  Bm           E 
  For a  while maybe longer if I  do. 

e|------------------0---------3-------2------0--------3-------2------------|
B|------------------2---------3-------3------2--------3-------3------------|
G|------------------2------0--0----2--2------2-----0--0----2--2------------|
D|------------------2------0--0--x-0--0------2-----0--0--x-0--0------------|
A|---------------0-------x----2--x--------x--0---x----2--x-----------------|
E|-----------------------x----3------------------x----3--------------------|


[Verse]

  A                 G            D         A            G D 
  Don't you think the  time is  right for  us to fight?         
  A             G        D                  A                               D
All  the things we  thought weren't  proper  could be right in time and can you see 
               C                                D 
which way  we should turn, together or  alone? 

        C                                    E 
I can  never see what's right and what is  wrong. (I'd take too long to see) 


[Chorus]

A          G               D 
  Amie,  what you wanna  do? 
A            G                    D  
  I think,  I could stay with you 
             Bm       Bm/A  Bm           E 
  For a  while maybe longer if I  do. 


[Pre Solo]
e|------------------0---------3-------2------0--------3-------2------------|
B|------------------2---------3-------3------2--------3-------3------------|
G|------------------2------0--0----2--2------2-----0--0----2--2------------|
D|------------------2------0--0--x-0--0------2-----0--0--x-0--0------------|
A|---------------0-------x----2--x--------x--0---x----2--x-----------------|
E|-----------------------x----3------------------x----3--------------------|


[Solo]
e|-------------------------------------------------------------------------|
B|----------------------5--5-----5-----------------------------------------|
G|--------2-x-2--2--4/6------4/6---6\4-2---2----2-0-5-4--2-----------------|
D|--2/4-x--------------------------------4----4-------------4------2-4-2-4-|
A|-------------------------------------------------------------3-4---------|
E|-------------------------------------------------------------------------|

e|-------------------------------------------------------------------------|
B|----------------------5---5---5---5-----7-8---8---8-8-8-8-8-0------------|
G|------5-4--2----4/6-6---6---6---6---6-6-8-9-9-9-9-9-9-9-9-9-0-----2-4-2--|
D|-2-4----------------------------------------------------------3h4--------|
A|-------------------------------------------------------------------------|
E|-------------------------------------------------------------------------|

e|-------------------------------------------------------------------------|
B|-------------------------------------------------------------------------|
G|--4/5-4--2-4--2--2----------0-0-2-0-3-2--2--0-----2-4-2-5-2-5-2-5\4------|
D|------------------------1-2-------------------3/4--------------------3/4-|
A|--------------------3-3--------------------------------------------------|
E|-------------------------------------------------------------------------|

e|-------------------------------------------------------------------------|
B|-3~(3)~3----------------------------------------------------------5---5--|
G|-----------------0-0-2-0-3-2-0--0-----2---2--2-4--4/6-4--4--4-4/7---6----|
D|-------------1-2------------------3/4---4--------------------------------|
A|-----------3-------------------------------------------------------------|
E|-----------0-------------------------------------------------------------|

                      End Solo:          
e|-----5-7b---7--5--5--7b---------3-------2--------------------------------|
B|-5-7----------------------------3-------3--------------------------------|
G|-----------------------------0--0----2--2--------------------------------|
D|-----------------------------0--0--x-0--0--------------------------------|
A|---------------------------x----2--x-------------------------------------|
E|---------------------------x----3----------------------------------------|


[Chorus]

A          G               D 
  Amie,  what you wanna  do? 
A            G                    D  
  I think,  I could stay with you 
             Bm       Bm/A  Bm           E 
  For a  while maybe longer if I  do.
 

[Verse]

  A                G          D            A            G D 
  Now its come to  what you  want you've  had your way.         
       A                    G      G             A                    D 
And  all the things you  thought be fore just  faded into gray and you  see 
          C                              D 
that I  don't know if its you or if its  me 
         C                               E 
If its  one of us I'm sure we both will  see (Won't you look at me and tell me) 


[Chorus]

A          G               D 
  Amie,  what you wanna  do? 
A            G                    D  
  I think,  I could stay with you 
             Bm       Bm/A  Bm           E 
  For a  while maybe longer if I  do.


[Chorus]

A          G               D 
  Amie,  what you wanna  do? 
A            G                    D  
  I think,  I could stay with you 
             Bm       Bm/A  Bm           E 
  For a  while maybe longer if I  do.

Outro:(repeat 4X)                                *(DO NOT PLAY ON 4TH TIME)*
e|-------------------------------------------------------------------------|
B|--------10---------------10----------------8---------------7*------------|
G|------9--------9-------9--------9--------9-------9-------7*------7*------|
D|----7--------7---7---7--------7---7----7-------7---7---7*------7*--7*----|
A|--0--------0-------0--------0--------0-------0-------0*------0*----------|
E|-------------------------------------------------------------------------|

*(CONTINUE WITH THIS)*
e|--------------------------------------------------0----------------------|
B|--------7--------7-------7-------7-------6------------6-------6----------|
G|----7-------7--------7-------7-------7--------7-----------7-------7------|
D|------7-------7--------7-------7-------7--------7-------7-------7--------|
A|--0-------0--------0-------0-------0--------0-------0-------0------------|
E|-------------------------------------------------------------------------|

e|----------------0-------------------------------0------------------------|
B|--------6-----------6-------6-----------0---0---0------------------------|
G|----7-------7-----------7-------7-----6---6-----6------------------------|
D|------6-------6-------6-------6-----7-----------7------------------------|
A|--0-------0-------0-------0-------0-------------0------------------------|
E|-------------------------------------------------------------------------|


[Outro Lyrics]

I keep  fallin' in and out of  love with  you 
  Fallin' in and out of  love with  you 
  Don't know what I'm gonna  do      
I keep  fallin' in and out of  love,  with  you.      


************************************

| x  Dead note
| h  Hammer-on
| b  Bend
| /  Slide up
| \  Slide down
| ~   vibrato

************************************
Suggest correction new What's this?
You can suggest a correction to this tab. Community and Mods will review your correction and vote to approve or reject it.
comments
print report bad tab
guest
You may want to rate the tab now too:
select rating
Please do not post tabs as comments. Select "correction" instead!