Oops, an error
Loading. Please wait.

Deus Ex Machina Tab

2,069 views 12 this week
1 commentread comment
1 2 3 4 5
excellent!
x 1
add to favorites
launch autoscroll
font size
0
reset
how to read this tab
guitar tuner
Tab Pro tools
  • play this tab
  • loop segment
  • change instrument
  • show fretboard
  • metronome
Autoscroll
slow
fast
+/-
esc
set tempo
stop
Contributor
Difficulty
Tuning
intermediate
D# G# C# F# A# D#
-------------------------------------------------------------------------------
                             Deus Ex Machina - Pure Reason Revolution
-------------------------------------------------------------------------------
Tabbed by: Jeff Cameron
Email: jcameron99@gmail.com

Tuning: Eb Standard (Eb Ab Db Gb Bb eb)

This song is a little tricky, but only consists of a few parts. Learn those
and you’re golden.  Listen to the song for rhythm, especially during the 
part.  I’ve tried to include rhythmic figures in the spacing of the notes to help.

Good luck and enjoy!

Synth Bass plays main riffs until guitar comes in at the verse

Verse  - 1:49
                                                Repeat: 6X
|---------------------------------------------------------------------------|
|---------------------------------------------------------------------------|
|---------------------------------------------------------------------------|
|---------------------------------------------------------------------------|
|----------5h7-----------------------------5h7-------------5h7--------------|
|--0-0-3h5-----0-0-3h5-0-8-0-8p7-0-5-3-0-0-----0-1-0-0-3h5-----0-1----------|

Prechorus - 2:28

PM: x xx   xxxx    xx    xxxx      x      x    xx
|---------------------------------------------------------------------------|
|---------------------------------------------------------------------------|
|--------9------11----9-----------------------------------------------------|
|--------x------x-----x-----------------------------------------------------|
|--------7------9-----7-----------------------------------------------------|
|---0-00---0000----00----0000-14p0-0-15p0-0-10-00-10h12---------------------|

PM: x xx    xxxx    xx   xxxx      x      x    xx
|---------------------------------------------------------------------------|
|---------------------------------------------------------------------------|
|--------17------11----9----------------------------------------------------|
|--------x-------x-----x----------------------------------------------------|
|--------15------9-----7----------------------------------------------------|
|---0-00----0000----00---0000-14p0-0-15p0-0-10-00-10h12---------------------|

PM: x xx   xxxx    xx    xxxx      x      x    xx
|---------------------------------------------------------------------------|
|---------------------------------------------------------------------------|
|--------9------11----9-----------------------------------------------------|
|--------x------x-----x-----------------------------------------------------|
|--------7------9-----7-----------------------------------------------------|
|---0-00---0000----00----0000-14p0-0-15p0-0-10-00-10h12---------------------|

PM: x xx   xxxx    xx
|---------------------------------------------------------------------------|
|---------------------------------------------------------------------------|
|--------9------11----16----------------------------------------------------|
|--------x------x-----x-----------------------------------------------------|
|--------7------9-----14----------------------------------------------------|
|---0-00---0000----00-------------------------------------------------------|

Chorus  - 2:41
                                                                Repeat: 2X
|---------------------------------------------------------------------------|
|---------------------------------------------------------------------------|
|--------------555----------------55-5-5-5----------------------------------|
|--222-0h2-22--555-555-5/7-777-77-55-5-5-5----------------------------------|
|--222-0h2-22--333-555-5/7-555-55-33-3-3-3----------------------------------|
|--000-0---00------333-3/5-555-55-------------------------------------------|

|---------------------------------------------------------------------------|
|---------------------------------------------------------------------------|
|--4444444444444444-2222222222222222----------------------------------------|
|--4444444444444444-2222222222222222----------------------------------------|
|--2222222222222222-0000000000000000----------------------------------------|
|---------------------------------------------------------------------------|

Postchorus - 2:57 (listen for rhythm)
|---------------------------------------------------------------------------|
|---------------------------------------------------------------------------|
|---------------------------------------------------------------------------|
|---------------------------------------------------------------------------|
|---------5h7------------------5h7------7-------7---------------------------|
|--00-3h5-----00-0-0-0--00-3h5-----00-0---0---0-----------------------------|

|---------------------------------------------------------------------------|
|---------------------------------------------------------------------------|
|---------------------------------------------------------------------------|
|---------------------------------------------------------------------------|
|--7------7---------5-------7-------5-7-------------------------------------|
|----00-0---0-0h3h5---1-1-1---0-0-5-----3-55555555--------------------------|

Verse - 3:08                                                    Repeat: 4X
|---------------------------------------------------------------------------|
|---------------------------------------------------------------------------|
|---------------------------------------------------------------------------|
|---------------------------------------------------------------------------|
|----------5h7-----------------------------5h7-------------5h7--------------|
|--0-0-3h5-----0-0-3h5-0-8-0-8p7-0-5-3-0-0-----0-1-0-0-3h5-----0-1----------|

Prechorus - 3:30

PM: x xx   xxxx    xx    xxxx      x      x    xx
|---------------------------------------------------------------------------|
|---------------------------------------------------------------------------|
|--------9------11----9-----------------------------------------------------|
|--------x------x-----x-----------------------------------------------------|
|--------7------9-----7-----------------------------------------------------|
|---0-00---0000----00----0000-14p0-0-15p0-0-10-00-10h12---------------------|

PM: x xx    xxxx    xx   xxxx      x      x    xx
|---------------------------------------------------------------------------|
|---------------------------------------------------------------------------|
|--------17------11----9----------------------------------------------------|
|--------x-------x-----x----------------------------------------------------|
|--------15------9-----7----------------------------------------------------|
|---0-00----0000----00---0000-14p0-0-15p0-0-10-00-10h12---------------------|

PM: x xx   xxxx    xx    xxxx      x      x    xx
|---------------------------------------------------------------------------|
|---------------------------------------------------------------------------|
|--------9------11----9-----------------------------------------------------|
|--------x------x-----x-----------------------------------------------------|
|--------7------9-----7-----------------------------------------------------|
|---0-00---0000----00----0000-14p0-0-15p0-0-10-00-10h12---------------------|

PM: x xx   xxxx    xx
|---------------------------------------------------------------------------|
|---------------------------------------------------------------------------|
|--------9------11----16----------------------------------------------------|
|--------x------x-----x-----------------------------------------------------|
|--------7------9-----14----------------------------------------------------|
|---0-00---0000----00-------------------------------------------------------|

Chorus - 3:49
                                                                Repeat: 2X
|---------------------------------------------------------------------------|
|---------------------------------------------------------------------------|
|--------------555----------------55-5-5-5----------------------------------|
|--222-0h2-22--555-555-5/7-777-77-55-5-5-5----------------------------------|
|--222-0h2-22--333-555-5/7-555-55-33-3-3-3----------------------------------|
|--000-0---00------333-3/5-555-55-------------------------------------------|

|---------------------------------------------------------------------------|
|---------------------------------------------------------------------------|
|--4444444444444444-2222222222222222----------------------------------------|
|--4444444444444444-2222222222222222----------------------------------------|
|--2222222222222222-0000000000000000----------------------------------------|
|---------------------------------------------------------------------------|

Breakdown - 4:05                                                Repeat: 4X
|---------------------------------------------------------------------------|
|---------------------------------------------------------------------------|
|---------------------------------------------------------------------------|
|---------------------------------------------------------------------------|
|---------------------------------------------------------------------------|
|--00-00-8-8-3-3-3h5-55-33333333--------------------------------------------|

Prechorus - 4:27
|---------------------------------------------------------------------------|
|---------------------------------------------------------------------------|
|--99999999-5555------99999999-5555-----------------------------------------|
|--99999999-5555-5555-99999999-5555-5555------------------------------------|
|--77777777-3333-5555-77777777-3333-5555------------------------------------|
|----------------3333---------------3333------------------------------------|

Chorus - 4:38
                                                                Repeat: 2X
|---------------------------------------------------------------------------|
|---------------------------------------------------------------------------|
|--------------555----------------55-5-5-5----------------------------------|
|--222-0h2-22--555-555-5/7-777-77-55-5-5-5----------------------------------|
|--222-0h2-22--333-555-5/7-555-55-33-3-3-3----------------------------------|
|--000-0---00------333-3/5-555-55-------------------------------------------|

|---------------------------------------------------------------------------|
|---------------------------------------------------------------------------|
|--4444444444444444-2222222222222222----------------------------------------|
|--4444444444444444-2222222222222222----------------------------------------|
|--2222222222222222-0000000000000000----------------------------------------|
|---------------------------------------------------------------------------|

Outro - 5:16
|---------------------------------------------------------------------------|
|---------------------------------------------------------------------------|
|---------------------------------------------------------------------------|
|---------------------------------------------------------------------------|
|---------5h7------------------5h7------7-------7---------------------------|
|--00-3h5-----00-0-0-0--00-3h5-----00-0---0---0-----------------------------|

|---------------------------------------------------------------------------|
|---------------------------------------------------------------------------|
|---------------------------------------------------------------------------|
|---------------------------------------------------------------------------|
|--7------7---------5-------7-------5-7-------------------------------------|
|----00-0---0-0h3h5---1-1-1---0-0-5-----3-55555555--------------------------|

|---------------------------------------------------------------------------|
|---------------------------------------------------------------------------|
|---------------------------------------------------------------------------|
|---------------------------------------------------------------------------|
|---------5h7------------------5h7------7-------7---------------------------|
|--00-3h5-----00-0-0-0--00-3h5-----00-0---0---0-----------------------------|

|---------------------------------------------------------------------------|
|---------------------------------------------------------------------------|
|---------------------------------------------------------------------------|
|---------------------------------------------------------------------------|
|--7------7---------5-------7-------5-7\\-----[end]-------------------------|
|----00-0---0-0h3h5---1-1-1---0-0-5-----------------------------------------|


| /  slide up
| \  slide down
| h  hammer-on
| p  pull-off
| ~  vibrato
| +  harmonic
| x  Mute note
===============================================================================
comments
We did not receive enough feedback on this tab! Please rate:
print report bad tab
1 2 3 4 5
1 comment total.
0 reply
thebearclan wrote on October 6 2010, 04:52 pm

awesome, this band is wicked

I want to post or [tab]
guest
You may want to rate the tab now too:
select rating
Please do not post tabs as comments. Select "correction" instead!