Oops, an error
Loading. Please wait.

Green Valley Tab

version 2
version 2

Whole song

Interactive

3,807 views 3 this week
1 commentread comment
1 2 3 4 5
2 more votes to show rating
add to favorites
launch autoscroll
font size
0
reset
how to read this tab
guitar tuner
Autoscroll
slow
fast
+/-
esc
set tempo
stop
Help us to improve Ultimate-Guitar.com Take our survey!
×
Author
GREEN VALLEY - Puscifer
-------------------------------------------------------------------------------

Tuning: 1/2 Step Down

This is pretty good for a solo acoustic/lyric rendition.

Tabbed by Austin King (Black Tree Music NW)

Listen to the song for perfect timing... I sick ass song. Enjoy it. 
Hail Maynard.

    (Intro)
      
     Eb5                          Eb5
d#|-----------------------------------------------------------|
A#|-----------------------------------------------------------|
F#|-----------------------------------------------------------|  
C#|----9------9-------9-------------9------9------9-----------|
G#|--7------7-------7-------------7------7------7-------------|
D#|-----------------------------------------------------------|

           (Verse 1)
Eb5                          Eb5
d#|-----------------------------------------------------------|
A#|-----------------------------------------------------------|
F#|-----------------------------------------------------------|  
C#|----9------9-------9-------------9------9------9-----------|
G#|--7------7-------7-------------7------7------7-------------|
D#|-----------------------------------------------------------|
    Hello Stranger an you tell      More importantly, 
    us where you've been?          How ever did you come to be here?

Eb5                          Eb5
d#|-----------------------------------------------------------|
A#|-----------------------------------------------------------|
F#|-----------------------------------------------------------|  
C#|----9------9-------9----5--------9------9------9-----------|
G#|--7------7-------7----5--7-----7------7------7-------------|
D#|-----------------------------------------------------------|
      Though a stranger,                 But save your energy, 
 You can rest here for a while.     Your journey here is far from over.

Db5                                 B5
d#|-----------------------------------------------------------|
A#|-----------------------------------------------------------|
F#|-----------------------------------------------------------|  
C#|----7------7-------7-------------7------7------7-----------|
G#|--5------5-------5-------------5------5------5-------------|
D#|-----------------------------------------------------------|
  Come the sunrise, We'll descend       And weigh your worth before
 through Judgement Valley,               her majesty, the Verde River.



           (Verse 2)
Eb5                          Eb5
d#|-----------------------------------------------------------|
A#|-----------------------------------------------------------|
F#|-----------------------------------------------------------|  
C#|----9------9-------9------5------9------9------9-----------|
G#|--7------7-------7------5--7---7------7------7-------------|
D#|-----------------------------------------------------------|
    No direction, but to      No direction but to trust to 
    follow what you know.          faith in her decision.

Eb5                          Eb5
d#|-----------------------------------------------------------|
A#|-----------------------------------------------------------|
F#|-----------------------------------------------------------|  
C#|----9------9-------9------5------9------9------9-----------|
G#|--7------7-------7------5--7---7------7------7-------------|
D#|-----------------------------------------------------------|
      No direction but to               No direction but to 
 never fight her flow...         trust to final destination.

Db5                                 B5
d#|-----------------------------------------------------------|
A#|-----------------------------------------------------------|
F#|-----------------------------------------------------------|  
C#|----7------7-------7-------------7------7------7-----------|
G#|--5------5-------5-------------5------5------5-------------|
D#|-----------------------------------------------------------|
  You're a stranger til she      You're a stranger til she 
 whispers you can stay..           whispers that your journey's over.
  

           (Interim breakdown)
Eb                                 Eb
d#|-----------------------------------------------------------|
A#|-----------------------------------------------------------|
F#|--9-9----9-9-----9-9-----------9-9----9-9----9-9-----------|  
C#|-----------------------------------------------------------|
G#|--7-7----7-7-----7-7-----------7-7----7-7----7-7-----------|
D#|-----------------------------------------------------------|
  Weigh your worth before           Weigh your worth before
  her majesty the verde river..     her majesty the verde river.. 

Eb                                 Eb
d#|-----------------------------------------------------------|
A#|-----------------------------------------------------------|
F#|--9-9----9-9-----9-9-----------9-9----9-9-----9-9----------|  
C#|-----------------------------------------------------------|
G#|--7-7----7-7-----7-7-----------7-7----7-7----7--7----------|
D#|-----------------------------------------------------------|
  Weigh your worth before           Weigh your worth before
  her majesty the verde river..     her majesty the verde river.. 

Eb                                 Eb
d#|------------------------------------------------------------|
A#|------------------------------------------------------------|
F#|------------------------------------------------------------|  x2
C#|------------------------------------------------------------|
G#|--7-7----7-7-----7-7-----------7------7------7--------------|
D#|--0-0----0-0-----0-0-----------0------0------0--------------|
  
Eb                                 Eb
d#|------------------------------------------------------------|
A#|------------------------------------------------------------|
F#|------------------------------------------------------------|  
C#|------------------------------------------------------------|
G#|--7-7----7-7-----7-7-----------7------7------7--------------|
D#|--0-0----0-0-----0-0-----------0------0------0--------------|

     No direction, but to         No direction but to trust to 
     follow what you know.          faith in her decision.
  
Eb                                 Eb
d#|------------------------------------------------------------|
A#|------------------------------------------------------------|
F#|------------------------------------------------------------|  
C#|------------------------------------------------------------|
G#|--7-7----7-7-----7-7-----------7------7------7--------------|
D#|--0-0----0-0-----0-0-----------0------0------0--------------|

     No direction but to               No direction but to 
 never fight her flow...         trust to final destination.

Db5                                 B5
d#|-----------------------------------------------------------|
A#|-----------------------------------------------------------|
F#|-----------------------------------------------------------|  
C#|-----------------------------------------------------------|
G#|--5------5-------5-------------5------5------5-------------|
D#|-----------------------------------------------------------|
  You're a stranger til she      You're a stranger til she 
 whispers you can stay..           whispers that your journey's over.

Eb                                 Eb
d#|-----------------------------------------------------------|
A#|-----------------------------------------------------------|
F#|-----------------------------------------------------------|  x2
C#|-----------------------------------------------------------|
G#|--7-7----7-7-----7-7-----------7-7----7-7----7-7-----------|
D#|--0-0----0-0-----0-0-----------0-0----0-0----0-0-----------|
  Weigh your worth before           Weigh your worth before
  her majesty the verde river..     her majesty the verde river.. 

Eb                                
d#|------------------------------------------------|
A#|------------------------------------------------|
F#|------------------------------------------------|  x2
C#|------------------------------------------------|
G#|--7-7----7-7-----7-7----------------------------|
D#|--0-0----0-0-----0-0----------------------------|   END


This is my first TAB, suggestions welcome. Hope someone was helped!
Suggest correction
Give kudos to tab author, rate the tab!
1 2 3 4 5
comments
print report bad tab
1 comment total.
0 reply
Slipknot101.0 646 Mar 02, 2012 10:50 AM

Tune to E standard, capo 1st fret starting with a D minor

guest
You may want to rate the tab now too:
select rating
Wanna post a correction for this tab? Suggest correction