Oops, an error
Loading. Please wait.

Momma Sed Tab

version 2
version 2

Whole song

Interactive

12,611 views 12 this week
2 commentsread comments
1 2 3 4 5
accurate
x 5
add to favorites
launch autoscroll
font size
0
reset
how to read this tab
guitar tuner
Autoscroll
slow
fast
+/-
esc
set tempo
stop
Help us to improve Ultimate-Guitar.com Take our survey!
×
Author
Difficulty
Tuning
novice
D A D G B E
The coolest song on the record.
The E-string has to be dropped to D!

h - hammer on
\ - slide down
p - pull off

intro
e -------------------------------|
B -------------------------------|
G -------------------------------|
D --5h6-5\3-1-3--1h3-1p0---------|
A -----------------------1-3-----|
D 3--------------------------6-3-|

verse
e -----------------------------|
B -----------------------------|
G -----------------------------|
D -3-1-1-1-1-3-3-3-----1-1-1---|
A -3-1-1-1-1-3-3-3-----1-1-1---|
D -3-1-1-1-1-3-3-3-----1-1-1---|

bridge
e ------------------------|
B -------------4----------|
G ------------------------|
D -1--1-1-1-1-----1-1-1---|
A -1--1-1-1-1-----1-1-1---|
D -1--1-1-1-1-----1-1-1---|

in the background through refrain:
e -3-4-3-1-|
B ---------|
G ---------|
D ---------|
A ---------|
D ---------|


wake up son of mine
momma got somethin' to tell you

changes come
life will have its way
with your pride, son
take it like a man

hang on son of mine
the storm is blowing up your horizon

changes come
keep your dignity
take the high road
take it like a man

listen up son of mine
momma got something to tell you
all about growing pains
life will pound away
where the light don't shine, son
take it like a man

suck it up son of mine
fucker blowing up your horizon

changes come
keep your dignity
take the high road
take it like a man

momma said like the rain
(this too shall pass)
like a kidney stone
(this too shall pass)
it's just a broken heart, son
this pain will pass away
Suggest correction
comments
print report bad tab
2 comments total.
0 reply
evilzug 10 wrote on May 23 2010, 06:08 pm

Insted of e -3-4-3-1-|

I like e -1---1-3
b ---4---

0 reply
wildBILL010 92 wrote on October 14 2015, 08:10 am

Chorus:

D|--3---6---1---6---1---6---3--|
A|--3---6---1---6---1---6---3--|
D|--3---6---1---6---1---6---3--|

*These are just the chords, the strumming is easy to figure out*

guest
You may want to rate the tab now too:
select rating
Please do not post tabs as comments. Select "correction" instead!