Oops, an error
Loading. Please wait.

Momma Sed Tab

version 3
version 3

Whole song

Interactive

1,774 views 1 this week
no commentswrite comment
1 2 3 4 5
please rate
add to favorites
launch autoscroll
font size
0
reset
how to read this tab
guitar tuner
Autoscroll
slow
fast
+/-
esc
set tempo
stop
Help us to improve Ultimate-Guitar.com Take our survey!
×
Author
Tuning
C# G# C# F# A# D#
Artist: Puscifer
Song: Momma Sed
Album: V is for Vagina
Tabbed by: Terry Schwimmbacher (schwimmyt@gmail.com)

Tuning: Dropped C# (i.e. Dropped D down half a step)
Key: H = hammer on
     X = dead note

This is an awesome song, and so far I haven?t found any tabs that are 100% correct. This 
probably isn?t either, but it sounds better than any of the others I?ve found. I?ve 
tried to give some idea of the timing, but it?s easy enough if you just listen to the song.

Main Riff:

            H                          H
D# |-------------------------------|-------------------------------------|
A# |-------------------------------|-------------------------------------|
F# |-------------------------------|-------------------------------------|
C# |--------6-7---6---4---2----4---|---2-4---2---1-----------------------|
G# |-------------------------------|-------------------2-----4-----0-----|
C# |--4----------------------------|-------------------------------------|

Verse: (This sounds best with some light palm muting)

D# |--------------------------------|------------------------------------|
A# |--------------------------------|------------------------------------|
F# |--------------------------------|------------------------------------|
C# |--------------------------------|------------------------------------|
G# |--4--------2----2----4----------|-----4----4----X----4----4----------|
C# |--4--------2----2----4----------|-----4----4----X----4----4----------|

In the middle of the verse there?s a hang on the (2) chord ? just listen for it.

Lead bit: (this plays in the 2nd half of the verse)

D# |---------------------------------------|
A# |---7--------7----9---------7--==-------|
F# |--------9--------------9---------9---=-|
C# |---------------------------------------|
G# |---------------------------------------|
C# |---------------------------------------|


Chorus: (I?ve just included the chords here, because the strumming pattern is really easy)
(x2 in first chorus, x4 in the second)
D# |-----------------|------------------|
A# |*----------------|-----------------*|
F# |-----------------|------------------|
C# |--------4--------|--------2---------|
G# |*-------4--------|--------2--------*|
C# |--------4--------|--------2---------|

Note: the chords change on the words ?come?, ?dignity?, ?higher road?, ?like a man?, etc.

Chorus Lead: (played throughout)

D# |------------------------------------------------------------|
A# |---9-----9-10-9---9-10-9---9-10-9---9-10-12-----------------|
F# |------------------------------------------------------------|
C# |------------------------------------------------------------|
G# |------------------------------------------------------------|
C# |------------------------------------------------------------|

Note: the (12) takes the place of the first (9) from the 2nd time onwards.

This song is actually ridiculously simple, but its fun to play and hopefully most of you 
find this tab pretty useful. Cheers.
Suggest correction
Give kudos to tab author, rate the tab!
1 2 3 4 5
comments
print report bad tab
guest
You may want to rate the tab now too:
select rating
Please do not post tabs as comments. Select "correction" instead!