Oops, an error
Loading. Please wait.

Rev 22 20 chords

version 2
version 2

Whole song

  • It's on key with the Dry Martini Mix version. Enjoy.
91 views 3 this week
no commentswrite comment
1 2 3 4 5
3 more votes to show rating
add to favorites
×
Save as Personal and add changes to this tab that will be seen only by you. Learn more ›
×
You can save this tab as Personal to edit and correct it or add notes. All changes will be seen only by you. Learn more »
launch autoscroll
font size
0
reset
transpose
0
reset
display chords
guitar tuner
edit
Autoscroll
slow
fast
+/-
esc
set tempo
stop
Strumming
There is no strumming pattern for this song yet. and get +5 IQ
There wasnt a written tab that I could find that didnt require a program to view it or 
that had the chords
even remotely close.
Listen to the song for strumming pattern.

  [Intro and Verse]
e|-------------------------|
B|-------------------------|
G|4------------------------|
D|4---4----3---------------|
A|2------------------------|
E|-------------------------|
   ^B  ^F#  ^F
F and F#- is played as a single note as shown in the tab above

  B
e|-------------------------|
B|-------------------------|
G|4------------------------|
D|4------------------------|
A|2------------------------|
E|-------------------------|

 F#
e|-------------------------|
B|-------------------------|
G|-------------------------|
D|4------------------------|
A|-------------------------|
E|-------------------------|

  F
e|-------------------------|
B|-------------------------|
G|-------------------------|
D|3------------------------|
A|-------------------------|
E|-------------------------|

  Em
e|-------------------------|
B|-------------------------|
G|-------------------------|
D|2------------------------|
A|2------------------------|
E|-------------------------|

 G
e|-3------------------------|
B|--------------------------|
G|--------------------------|
D|--------------------------|
A|-2------------------------|
E|--3-----------------------|

 B
e|-2------------------------|
B|-4------------------------|
G|-4------------------------|
D|-4------------------------|
A|-2------------------------|
E|--2-----------------------|

B                         F
        Don't be aroused, by my confession
B                                    F
        Unless you don't give a good Goddamn about redemption
       B                 F
I know Christ is comin', so am I
B                                    F
       And you would too if the sexy devil caught your eye

                 B
She'll suck you dry
                  F                      B
But still you'll cry, to be back in her bosom
            F
To do it again
                B
She'll make you weak
               F                      B
And mourn and cry, to be back in her bosom
          F
To do it again

Em     G        B
(Pray) Til I go blind
Em     G            B
(Pray) Cause nobody ever survives
Em                       G                     B
Prayin' to stay in your arms just until I can die a little longer
Em                  G                       A
Satyrs and saints, devils and heathens and lies
               B             F#   F
She'll eat you alive
B             F#   F

B                        F
         Jesus is risen, it's no surprise
               B                         F
Even he would martyr his mama to ride to hell between those thighs
B                                  F
         The pressure is building, at the base of my spine
            B                                  F
If I gotta sin to see her again then I'm gonna lie and lie and lie
                B
She'll make you cry
             F                        B
I'll sell my soul, to be back in your bosom
       B                  F
Gladly now please suck me dry
                 B                      F
And still you'll cry, to be back in her bosom
         B
To do it again

Em     G        B
(Pray) Til I go blind
Em     G            B
(Pray) Cause nobody ever survives
Em                       G                     B
Prayin' to stay in your arms just until I can die a little longer
Em                  G                       A
Satyrs and saints, devils and heathens and lies
               B             F
She'll eat you alive

   B
My pulse has been rising
My temples are pounding
    F
The pressure is so overwhelming and building
   B
So steady they're fretting I'm ready to blow
F
What is she what is she what is she waiting for?

Em     G        B
(Pray) Til I go blind
Em     G            B
(Pray) Cause nobody ever survives
Em                       G                     B
Prayin' to stay in your arms just until I can die a little longer
Em                  G                       A
Satyrs and saints, devils and heathens and lies
               B             F#   F
She'll eat you alive

            
            
Suggest correction
Creating personal tab
Creating personal tab
You can edit any tab online and save it as your Personal.

You can edit, replace or remove any tab part or add personal notes – all changes will be seen only by you.

Personal tabs can be accessed anytime from any device, even offline.
Learn more »
Give kudos to tab author, rate the tab!
1 2 3 4 5
comments
print report bad tab
guest
You may want to rate the tab now too:
select rating
Wanna post a correction for this tab? Suggest correction