Oops, an error
Loading. Please wait.

The Humbling River Tab

version 1
version 1

Whole song

Interactive

50,461 views 153 this week
1 commentread comment
1 2 3 4 5
x 36
add to favorites
launch autoscroll
font size
0
reset
how to read this tab
guitar tuner
Autoscroll
slow
fast
+/-
esc
set tempo
stop
Help us to improve Ultimate-Guitar.com Take our survey!
×
The first 3½ lines make up the main bulk of the song, with only a couple other parts

Play the Main Part three times at first

[Main Part]
E|-----------------------------------------------------------------|
B|-----------------------------------------------------------------|
G|-----------------------------------------------------------------|
D|----4-----4---------4-------4-----4---------4-----4---------4----|
A|-4-----------4---0---------------------------------------0-------|
E|------------------------2-----------2---2-----------2------------|
                                  * Words enter

E|----------------------------------------------------------------|
B|----------------------------------------------------------------|
G|----------------------------------------------------------------|
D|--4---------4-------4-----4---------4-----4---------4-----4-----|
A|----0---2---------------------------------------4-----------4---|
E|----------------2-----------2---2-----------2-------------------|

E|-----------------------------------------------------------------|
B|-----------------------------------------------------------------|
G|-----------------------------------------------------------------|
D|----4-------4-----4---------4-----4---------4-----4---------4----|
A|-0---------------------------------------------------------------|
E|--------2-----------2---2-----------2---0-----------0---2--------|

E|------------------------|
B|------------------------|
G|------------------------|
D|--4---------4-----4-----|
A|------------------------|
E|----2---2-----------2---|
 
[Interlude]
E|----------------------------------------------------------------|
B|----------------------------------------------------------------|
G|----------------------------------------------------------------|
D|----4-----4---------4-----4---------4-----4---------4-----4-----|
A|----------------------------------------------------------------|
E|0-----------0---2-----------2---2-----------2---0-----------0---|
                                                   
E|--------------------------------|
B|--------------------------------|
G|--------------------------------|
D|----4-----4---------4-----4-----|
A|--------------------------------|
E|2-----------2---2-----------2---| 

[Main part]

[Interlude] x2

[Main part] x6
 
[Outro] x4
E|----------------------------------------------------------------|
B|----------------------------------------------------------------|
G|----------------------------------------------------------------|
D|----4-----4---------4-------4-----4---------4-----4---------4---|
A|4-----------4---0-----------------------------------------------|
E|------------------------2-----------2---2-----------2---0-------|

E|----------------------------------------|
B|----------------------------------------|
G|----------------------------------------|
D|--4---------4-----4---------4-----4-----|
A|----------------------------------------|
E|----0---2-----------2---2-----------2---|
Suggest correction
comments
print report bad tab
1 comment total.
0 reply
blazewing23 10 Jul 21, 2013 05:33 AM

This was a great tab you threw together, I played this in my music class and my teacher was really happy, so yeah, great work!!!! 10/10

guest
You may want to rate the tab now too:
select rating
Wanna post a correction for this tab? Suggest correction