Oops, an error
Loading. Please wait.

Vagina Mine Tab

3,021 views 27 this week
no commentswrite comment
1 2 3 4 5
please rate
add to favorites
launch autoscroll
font size
0
reset
how to read this tab
guitar tuner
Autoscroll
slow
fast
+/-
esc
set tempo
stop
Help us to improve Ultimate-Guitar.com Take our survey!
×
Author
Difficulty
novice
Artist: Puscifer
Song: Vagina Mine
Album "V" is For Vagina

Tabbed by: NiteFlie

Tuning: Standard

Notes:
	-Listen to the song for arrangement in Verse, Outro.
	-Use rhythms given as guidelines.


INTRO:
Rhythm:
e|------------------------------------------------------------------------|
B|------------------------------------------------------------------------|
G|------------------------------------------------------------------------|
D|------------------------------------------------------------------------|
A|------------------------------------------------------------------------|
E|-0--7--0--7------0--7--0--7------0--7--0--7------0--7--0--7--0--7--0--7-|

e|--------------------------------------------------------|
B|--------------------------------------------------------|
G|--------------------------------------------------------| Repeat
D|--------------------------------------------------------|
A|--------------------------------------------------------|
E|-0--7--0--7------0--7--0--7------0--7--0--7--0--7--0--7-|

e|----------------------------|
B|----------------------------|
G|----------------------------|
D|----------------------------|
A|----------------------------|
E|-0--7--0--7------0--7--0--7-|



Verse:
Rhythm 1:
e|-------------------------------------------------------------|
B|-------------------------------------------------------------|
G|-------------------------------------------------------------|
D|-------------------------------------------------------------| Repeat
A|-2--2----2--2--2----2--2--2----2--2--2--2--2--2--2--2--2--2--|
E|-0--0----0--0--0----0--0--0----0--0--0--0--0--0--3--0--0--0--|
pm-------------------------------------------------------------|


Rhythm 2:
e|------------------------------------------------------------------------|
B|------------------------------------------------------------------------|
G|------------------------------------------------------------------------|
D|------------------------------------------------------------------------|
A|------------------------------------------------------------------------|
E|-0--7--0--7------0--7--0--7------0--7--0--7------0--7--0--7--0--7--0--7-|


e|--------------------------------------------------------|
B|--------------------------------------------------------|
G|--------------------------------------------------------| Repeat
D|--------------------------------------------------------|
A|--------------------------------------------------------|
E|-0--7--0--7------0--7--0--7------0--7--0--7--0--7--0--7-|



Lead 1 (tremolo picking with delay):
e|-------------|
B|-------------|
G|-------------| Repeat
D|-------------|
A|-------------|
E|-12-12-12-12-|
pm-------------|

e|---------------------------------------------------|
B|---------------------------------------------------|
G|---------------------------------------------------|
D|12-12-12-12-12-14-12-12-14-12-12-14-12-12-14-12-12-|
A|---------------------------------------------------|
E|---------------------------------------------------|


Lead 2 (tremolo picking with delay):
|-------------|
|-------------|
|-------------| Repeat
|-14-14-14-14-|
|-------------|
|-------------|
pm------------|

|--------------------------------------|
|--------------------------------------|
|-21--21-21--21-21--21-21--21-21-12-21-| Repeat
|--------------------------------------|
|--------------------------------------|
|--------------------------------------|



OUTRO:
No guitar accompaniment.

Lead 3 (tremolo picking with delay):
e|----------------|
B|----------------|
G|----------------|
D|----------------|
A|----------------|
E|-10/12-12-12-12-|
pm----------------|

e|-------------|
B|-------------|
G|-------------| Repeat
D|-------------|
A|-------------|
E|-12-12-12-12-|
pm-------------|

e|---------------------------------------------------|
B|---------------------------------------------------|
G|---------------------------------------------------|
D|---------------------------------------------------|
A|---------------------------------------------------|
E|-12-12-12-12-15-12-15-12-17-12-12-17-12-12-19-12-12|


************************************
| Key:
| /     slide up
| pm--| Palm Mute dashed region
|
************************************
Suggest correction
Give kudos to tab author, rate the tab!
1 2 3 4 5
comments
print report bad tab
guest
You may want to rate the tab now too:
select rating
Please do not post tabs as comments. Select "correction" instead!