Oops, an error
Loading. Please wait.

Midnight Romeo tab

version 1
version 1

Whole song

6,776 views 3 this week
2 commentsread comments
1 2 3 4 5
1 last vote to show rating
add to favorites
×
Save as Personal and add changes to this tab that will be seen only by you. Learn more ›
×
You can save this tab as Personal to edit and correct it or add notes. All changes will be seen only by you. Learn more »
launch autoscroll
font size
0
reset
how to read this tab
guitar tuner
edit
Autoscroll
slow
fast
+/-
esc
set tempo
stop
Song: Midnight Romeo
Band: Push Play
Album: Midnight Romeo - Single

Tabbed by: Annoyingxp

Capo 4

Intro/Verse 1/Verse 2:
   Bm         G        Em         F# 
e|-------2--------3--------0---------2-------------|
B|-----3--------3--------0---------2---------------|
G|---4--------0--------0---------3-----------------|
D|-------------------------------------------------|
A|-2-----------------------------------------------|
E|----------3--------0---------2-------------------|

Pre-chorus:
   Bm       G        Em                           A               F#
   V        V V      V                            V               V
e|-2--------3-3------0----------------------------0---------------2--------|
B|-3--------0-0------0----------------------------2---------------2--------|
G|-4--------0-0------0-------------------------—--2----—----------3--------|
D|-4--------0-0------2----------------------------2---------------4--------|
A|-2--------2-2------2----------------------------0---------------4--------|
E|----------3-3------0--------------------------------------------2--------|
   Oh. Whooa     My heart is beating fast but my hands are moving slow

   Bm       G        Em                      A               
   V        V V      V                       V   ^   V   ^     
e|-2--------3-3------0-----------------------0---0---0---0-----------------|
B|-3--------0-0------0-----------------------2---2---2---2-----------------|
G|-4--------0-0------0---------—-------------2---2---2---2-----------------|
D|-4--------0-0------2-----------------------2---2---2---2-----------------|
A|-2--------2-2------2------------------ ----0---0---0---0-----------------|
E|----------3-3------0-----------------------------------------------------|
   Oh. Whooa        Feels so right you just can't say no

Chorus:
Bm
 Late night gonna hit the town
      Em
Gonna take you out
                G 
Gonna make you whooa
    A
Whooaa. Midnight romeo
Bm
 Show me yours and I'll show you mine
      Em
Gonna make you sweat
                       G
Gonna feel you head to toe
    A
You know, I'm your midnight romeo


Intro

Verse 2

Pre-Chorus

Chorus


Bridge:
 G                 Em                   Bm
 Now its time I'll turn the lights down low

Show me yours and I'll show you mine
     
Gonna make you sweat

Gonna be your Romeo
 G                Em              Bm        A
 Take my hand its time to lose control  Whooooaa

I'm your Midnight Romeo.


Bm (let it ring)
 Late night gonna hit the town
     Em (let it ring)
Gonna take you out
                G (let it ring)
Gonna make you whooa
   A
Whooooaa


Chorus 2x
Suggest correction
Creating personal tab
Creating personal tab
You can edit any tab online and save it as your Personal.

You can edit, replace or remove any tab part or add personal notes – all changes will be seen only by you.

Personal tabs can be accessed anytime from any device, even offline.
Learn more »
Give kudos to tab author, rate the tab!
1 2 3 4 5
comments
print report bad tab
2 comments total.
0 reply
AnnoyingXP 482 Aug 19, 2009 03:16 PM

Sorry...forgot to add the pre-chorus after verse 2

0 reply
bigmac3795 10 Oct 04, 2009 02:40 PM

actually the intro is:

e|-------2--------3--------0-----------------------|
B|-----3--------0--------0---------2---------------|
G|---4--------0--------0---------3-----------------|
D|-4--------0--------2---------4-------------------|
A|---------------------------4---------------------|
E|-------------------------------------------------|

guest
You may want to rate the tab now too:
select rating
Wanna post a correction for this tab? Suggest correction