Oops, an error
Loading. Please wait.

Demon Limbs tab

by PVRIS
217 views 21 this week
no commentswrite comment
1 2 3 4 5
2 more votes to show rating
add to favorites
×
Save as Personal and add changes to this tab that will be seen only by you. Learn more ›
×
You can save this tab as Personal to edit and correct it or add notes. All changes will be seen only by you. Learn more »
launch autoscroll
font size
0
reset
how to read this tab
guitar tuner
edit
Autoscroll
slow
fast
+/-
esc
set tempo
stop
About this tab version
Full Guitar Tab Version - Please rate or comment. Was this info helpful? Yes No
PVRIS - Demon Limbs


[Intro]

e|------------------------------|----------------------------|
B|--------8-------------12------|------7-------------7-------|
G|--------9-------------12------|------7----7--7--7-----7----|
D|------------------------------|----------------------------|
A|-7------------10--------------|-5--------------------------|
E|------------------------------|----------------------------|

e|------------------------------|--------------------------------|
B|--------8-------------12------|--------------------------------|
G|--------9-------------12------|--9-------------------9---------|
D|------------------------------|-10----10-10-10-10-10----10-10--|
A|-7------------10--------------|--------------------------------|
E|------------------------------|--------------------------------|

play Intro 2x



[Verse]

e|--------------------|--------------------|--------------------|------------------|
B|-8------------------|-----------7--------|-5------------------|-7----------------|
G|-9------------------|-----------7--------|-5------------------|-7----------------|
D|--------------------|--------------------|--------------------|------------------|
A|-7------------------|-----------5--------|-3------------------|-5----------------|
E|--------------------|--------------------|--------------------|------------------|
  "Oh I know, I can feel the shifting in my bones, Enclosed are senses so unknown"


e|---------------------------|-------------7-----------|
B|----8-----------10p8-------|----8-----------7--------|
G|-9-----9--9--9-------9--9--|-9-----9--9--------7--7--|
D|---------------------------|-------------------------|
A|---------------------------|-------------------------|
E|---------------------------|-------------------------|
   I've been changing,        falling, fading

e|--------------------------|--------------------------|
B|---5---5---5---5---5--/7--|---7---7---7---7---7---7--|
G|-5---5---5---5---5----/7--|-7---7---7---7---7---7----|
D|--------------------------|--------------------------|
A|--------------------------|--------------------------|
E|--------------------------|--------------------------|
  There's demons at the door patiently waiting



[Prechorus]

e|----------------------------------|---------------------------------|
B|-5---5---5---5---5---5----7---7---|-8---8---8---8---7---7---7---7---|
G|-5-5---5---5---5---5---5--7-7---7-|-9-9---9---9---9-7-7---7---7---7-|
D|----------------------------------|---------------------------------|
A|-3------------------------5-------|-7---------------5---------------|
E|----------------------------------|---------------------------------| 
  But I,                                wasn't, 

e|-----------------------8-----8----|---------------------------------|
B|-5-5---5---5---5--5----10-10---10-|-8---8---8---8---7---7---7---7---|
G|-5---5-------5------5-------------|-9-9---9---9---9-7-7---7---7---7-|
D|-----------------------7----------|---------------------------------|
A|-3--------------------------------|-7---------------5---------------|
E|----------------------------------|---------------------------------|
   composed of broken bones or demon limbs

e|----------------------------------|---------------------------------|
B|-5---5---5---5---5---5----7---7---|-8---8---8---8---7---7---7---7---|
G|-5-5---5---5---5---5---5--7-7---7-|-9-9---9---9---9-7-7---7---7---7-|
D|----------------------------------|---------------------------------|
A|-3------------------------5-------|-7---------------5---------------|
E|----------------------------------|---------------------------------|
  So please watch over me, 

e|---------------------------------|---------------------------------|
B|-5---5---5---5---5---5---5---5---|-7---7---7------7----------------|
G|-5-5---5---5---5---5---5---5---5-|-7-7---7---7--7------------------|
D|---------------------------------|---------------------------------|
A|-3-------------------------------|-5-------------------------------|
E|---------------------------------|---------------------------------|
   and be the light to carry me



[Chorus]
e|------------------------------------------|--------------------------------------------|
B|-8-8---8-----8----12--12----12------12----|--------------------------------------------|
G|-9---9-----9---9--12-----12------12----12-|-11-11---11------11---11---11---11---11-----|
D|------------------------------------------|-12----12------12---12---12---12---12---12--|
A|-7----------------10----------------------|--------------------------------------------|
E|------------------------------------------|-10-----------------------------------------|
             Please be the light, 

e|------------------------------------------|---------------------------------------------|
B|-8-8---8-----8----12--12----12------12----|---------------------------------------------|
G|-9---9-----9---9--12-----12------12----12-|--9-------9---------------------9------------|
D|------------------------------------------|-10-10-10-----10-10-10-10-10-10-----10-10-10-|
A|-7----------------10----------------------|---------------------------------------------|
E|------------------------------------------|--8------------------------------------------|
      please be the light         that    carries me



[Verse 2]
  Guitar 1
e|--------------------|-------------------|-------------------|-----------------|
B|--------------------|-------------------|-3-----------------|-5------------7--|
G|--------------------|-------------------|-------------------|-5------------7--|
D|-5------------------|-4-----------------|-------------------|-----------------| play 2x
A|-7------------------|-5-----------------|-0-----------------|-3------------5--|
E|--------------------|-------------------|-------------------|-----------------|



 Guitar 2 (quietly with the above part when it repeats)
e|--------------------------------|-------------------------------------------|
B|------8---8---8---8---10---10---|-10---10---10---10---12---12---12---12-----|
G|----9---9---9---9---9----9----9-|----11---11---11---11---11---11---11---11--|
D|--------------------------------|-------------------------------------------|
A|--------------------------------|-------------------------------------------|
E|--------------------------------|-------------------------------------------|

e|---------------------------------|------------------------------------------|
B|-13TP----------------12-12-12-12-|-13---------------------------------------|
G|---------------------------------|------------------------------------------|
D|---------------------------------|------------------------------------------|
A|---------------------------------|------------------------------------------|
E|---------------------------------|------------------------------------------|



[Verse 2 Part 2]

e|--------------------|--------------------|--------------------|------------------|
B|-8------------------|-----------7--------|-5------------------|-7----------------|
G|-9------------------|-----------7--------|-5------------------|-7----------------|
D|--------------------|--------------------|--------------------|------------------|
A|-7------------------|-----------5--------|-3------------------|-5----------------|
E|--------------------|--------------------|--------------------|------------------|



[Prechorus 2]

e|----------------------------------|---------------------------------|
B|-5---5---5---5---5---5----7---7---|-8---8---8---8---7---7---7---7---|
G|-5-5---5---5---5---5---5--7-7---7-|-9-9---9---9---9-7-7---7---7---7-|
D|----------------------------------|---------------------------------|
A|-3------------------------5-------|-7---------------5---------------|
E|----------------------------------|---------------------------------| 
  But I,                                wasn't, 

e|-----------------------8-----8----|---------------------------------|
B|-5-5---5---5---5--5----10-10---10-|-8---8---8---8---7---7---7---7---|
G|-5---5-------5------5-------------|-9-9---9---9---9-7-7---7---7---7-|
D|-----------------------7----------|---------------------------------|
A|-3--------------------------------|-7---------------5---------------|
E|----------------------------------|---------------------------------|
   composed of broken bones or demon limbs

e|----------------------------------|---------------------------------|
B|-5---5---5---5---5---5----7---7---|-8---8---8---8---7---7---7---7---|
G|-5-5---5---5---5---5---5--7-7---7-|-9-9---9---9---9-7-7---7---7---7-|
D|----------------------------------|---------------------------------|
A|-3------------------------5-------|-7---------------5---------------|
E|----------------------------------|---------------------------------|
  So please watch over me, 

e|---------------------------------|---------------------------------|
B|-5---5---5---5---5---5---5---5---|-7---7---7------7----------------|
G|-5-5---5---5---5---5---5---5---5-|-7-7---7---7--7------------------|
D|---------------------------------|---------------------------------|
A|-3-------------------------------|-5-------------------------------|
E|---------------------------------|---------------------------------|
   and be the light to carry me




[Chorus 2]

e|------------------------------------------|--------------------------------------------|
B|-8-8---8-----8----12--12----12------12----|--------------------------------------------|
G|-9---9-----9---9--12-----12------12----12-|-11-11---11------11---11---11---11---11-----|
D|------------------------------------------|-12----12------12---12---12---12---12---12--|
A|-7----------------10----------------------|--------------------------------------------|
E|------------------------------------------|-10-----------------------------------------|
             Please be the light, 

e|------------------------------------------|---------------------------------------------|
B|-8-8---8-----8----12--12----12------12----|---------------------------------------------|
G|-9---9-----9---9--12-----12------12----12-|--9-------9---------------------9------------|
D|------------------------------------------|-10-10-10-----10-10-10-10-10-10-----10-10-10-|
A|-7----------------10----------------------|---------------------------------------------|
E|------------------------------------------|--8------------------------------------------|
      please be the light         that    carries me


[Bridge]

e|------------------------------------------------|----------------------------------|
B|-----------13---------------------13------------|-------8---------------7----------|
G|-14--14-14------14-14-14-14-14-14------14-14-14-|-9-9-9-----9-9-9-7-7-7-----7-7-7--|
D|------------------------------------------------|----------------------------------| play 3x
A|-12---------------------------------------------|-7---------------5----------------|
E|------------------------------------------------|----------------------------------|
This world                                          is a masterpiece
A canvas sheet                                      accountable for such losses
Shout out to the                                    artist who took his 


e|------------------------------------|------------------------------------|
B|-5-------5---------------5----------|-7-------7---------------7----------|
G|-5-5-5-5-----5-5-5-5-5-5-----5-5-5--|-7-7-7-7-----7-7-7-7-7-7-----7-7----|
D|------------------------------------|------------------------------------|
A|-3----------------------------------|-5----------------------------------|
E|------------------------------------|------------------------------------|
heart and his soul and lost them both in the process



[Outro]

Repeat this part with lyrics until fade out 

e|--------------------|--------------------|--------------------|------------------|
B|-8--------------12\-|-5------------------|-8---------------3--|-5----------------|
G|-9--------------12\-|-5------------------|-9---------------4--|-5----------------| 
D|--------------------|--------------------|--------------------|------------------|
A|-7--------------10\-|-3------------------|-7---------------2--|-3----------------|
E|--------------------|--------------------|--------------------|------------------|

e|--------------------|--------------------|--------------------|------------------|
B|-8--------------12\-|-5------------------|-8---------------3--|-5-------7--------|
G|-9--------------12\-|-5------------------|-9---------------4--|-5-------7--------| 
D|--------------------|--------------------|--------------------|------------------|
A|-7--------------10\-|-3------------------|-7---------------2--|-3-------5--------|
E|--------------------|--------------------|--------------------|------------------|


Lyrics:

"If it gets hold of me
Please be the saint to save me
So please watch over me, and be the light to carry me"


************************************

| p   pull-off
| /   Slide up
| \   Slide down

            
            
Suggest correction
Creating personal tab
Creating personal tab
You can edit any tab online and save it as your Personal.

You can edit, replace or remove any tab part or add personal notes – all changes will be seen only by you.

Personal tabs can be accessed anytime from any device, even offline.
Learn more »
Give kudos to tab author, rate the tab!
1 2 3 4 5
comments
print report bad tab
guest
You may want to rate the tab now too:
select rating
Wanna post a correction for this tab? Suggest correction