Oops, an error
Loading. Please wait.

Empty Tab

280 views 9 this week
no commentswrite comment
1 2 3 4 5
2 more votes to show rating
add to favorites
launch autoscroll
font size
0
reset
how to read this tab
guitar tuner
Autoscroll
slow
fast
+/-
esc
set tempo
stop
Help us to improve Ultimate-Guitar.com Take our survey!
×
Author
Difficulty
intermediate
PVRIS - EMPTY
Standard tuning (E)

For exact timing listen: youtube.com/watch?v=FRihbH-Mqo4
I use lots of delay and reverb.

00:04
Verse 3x 
let it ring
E|-----------------------------------|
B|--13--------12-------8-------10----|
G|--14--------12-------9-------10----|
D|-----------------------------------|
A|--12--------10-------7-------8-----|
E|-----------------------------------|
You see, I want the world to believe...

or play this
3x 
let it ring
E|-----------------------------------|
B|--10--------8--------5-------6-----|
G|-----------------------------------|  
D|--7---------5--------2-------3-----|
A|-----------------------------------|
E|-----------------------------------|

00:37
Bridge 1x
E|---------------------|
B|--10---------12------|
G|--10---------12------|
D|---------------------|
A|--8----------10------|
E|---------------------|
Can't you see all of the change in me?

or
1x
E|---------------------|
B|--6----------8-------|
G|---------------------|  
D|--3----------5-------|
A|---------------------|
E|---------------------|

00:42
Chorus 2x
let it ring
E|-----------------------------------|
B|-10---12---13----10---12---10------|
G|-----------------------------------|
D|-7----9----10----7----9----7-------|
A|-----------------------------------|
E|-----------------------------------|

01:05
Verse 3x Let it ring
E|-----------------------------------|
B|--13--------12-------8-------10----|
G|--14--------12-------9-------10----|
D|-----------------------------------|
A|--12--------10-------7-------8-----|
E|-----------------------------------|
You took these starving limbs, tried to see...

01:27
Bridge 1x
E|------------------|
B|--10------12------|
G|--10------12------|
D|------------------|
A|--8-------10------|
E|------------------|
Now you see, that didn't change a thing.

01:33 - 02:16
Chorus 8x
E|-------------------------------------------------------------------------------------|
B|-1010101010101010-12121212-13131313-8/10101010101010-10/13-12121212-10101010---------|
G|-------------------------------------------------------------------------------------|
D|-7-7-7-7-7-7-7-7--9-9-9-9--10101010-5/7-7-7-7-7-7-7---7/10-9-9-9-9--7-7-7-7----------|
A|-------------------------------------------------------------------------------------|
E|-------------------------------------------------------------------------------------|

01:54 - 02:59
guitar 2 (tapping)
E|-12-8-7-5-12-8-7-5-12-8-7-5-12-8-7-5-12-8-7-5-12-8-7-5-12-8-7-5-etc-|
B|--------------------------------------------------------------------|
G|--------------------------------------------------------------------|
D|--------------------------------------------------------------------|
A|--------------------------------------------------------------------|
E|--------------------------------------------------------------------|

ending part - when drums hit 02:38 and 02:50
2x
E|----------------------|
B|----------------------|
G|----------------------|
D|----------------------|
A|-----0---0------------|
E|-----5---5------------|

03:00
ending 1x
let it ring
E|-------------------------------------|
B|-10---12---13---8---10---12---10---8-|
G|-------------------------------------|
D|-7----9----10---5---7----9----7----5-|
A|-------------------------------------|
E|-------------------------------------|
I'm empty. I'm empty. I'm empty. I'm empty.
Suggest correction
Give kudos to tab author, rate the tab!
1 2 3 4 5
comments
print report bad tab
guest
You may want to rate the tab now too:
select rating
Wanna post a correction for this tab? Suggest correction