Oops, an error
Loading. Please wait.

Fire Live tab

version 3
version 3

Whole song

Interactive

by PVRIS
268 views 3 this week
1 commentread comment
1 2 3 4 5
1 last vote to show rating
add to favorites
×
Save as Personal and add changes to this tab that will be seen only by you. Learn more ›
×
You can save this tab as Personal to edit and correct it or add notes. All changes will be seen only by you. Learn more »
launch autoscroll
font size
0
reset
how to read this tab
guitar tuner
edit
Autoscroll
slow
fast
+/-
esc
set tempo
stop
This was tabbed by Sophie MNTSC on youtube 
This is the live version Lynn did by herself on NRK P3


[Verse 1]

D|---------------------------------------------|
A|--8--7--5----3/5--8------8--12--5----3/5--8--|
F|---------------------------------------------|   
C|---------------------------------------------|
G|--7--5--3----0----7------7--10--3----0----7--|
D|---------------------------------------------|

Don't blame your death
On the shit in your head that you claimed ate you like a virus for days on end.
Watched you decay,
Watched you waste away
Who'd you think you'd fool, baby, digging your own grave?


[Pre-Chorus]

D|---------------------------------------------|
A|--8--7--5----3/5--8------8--12--5----3/5--8--|
F|---------------------------------------------|   
C|---------------------------------------------|
G|--7--5--3----0----7------7--10--3----0----7--|
D|---------------------------------------------|

So go ahead, yeah just drop dead,
And while you're trying to fool the whole world don't forget that you'll decay
And you'll waste away
You can't cheat death when you're digging your own grave


[Chorus]

D|--3-3-3-3-3-3-3-3-3-3-3-3-3-3-3-3-3-3-3-3-3------------------|
A|--3-3-3-3-3-3-3-3-3-3-3-3-3-3-3-3-3-3-3-3-3------------------|
F|--------------------2-2-2-2-2-2-2----------------------------|(x4)
C|--2-2-----2-2-2-2-2-2-2-2-2-2-2-2-2-2-2-2-2------------------|
G|--2-2-2-2-3-3-3-3-3---------------2-2-2-2-2------------------|
D|------3-3----------------------------------------------------|


You're out of line,
Buried yourself alive and expected to be fine
You can't rewind,
When you're choking on your own dirt begging for your life

Your bridges are burning
And all the tables are turning
You started a fire, yeah, you're burning up
Oh you're burning up

D|-3--3--3--3--3--3--------------------------------------------|
A|-------------------------------------------------------------|
F|-------------------------------------------------------------|
C|-------------------------------------------------------------|(x2)
G|-------3--0--0-----------------------------------------------|
D|-0--3-----------0--------------------------------------------|

Burning up, oh burning up
Burning up, oh burning up
Burning up, oh burning up
Burning up, oh burning up


[Verse 2]

D|---------------------------------------------|
A|--8--7--5----3/5--8------8--12--5----3/5--8--|
F|---------------------------------------------|   
C|---------------------------------------------|
G|--7--5--3----0----7------7--10--3----0----7--|
D|---------------------------------------------|

What you give, is what you get
And in your case that's nothing but guilt and regret
And all the flames you kept in your brain
Came out your lips and sent you straight into your own grave


[Pre-Chorus]

D|---------------------------------------------|
A|--8--7--5----3/5--8------8--12--5----3/5--8--|
F|---------------------------------------------|   
C|---------------------------------------------|
G|--7--5--3----0----7------7--10--3----0----7--|
D|---------------------------------------------|

You were a walking, talking, corpse at best.
And I swear I couldn't wait to get you off my chest,
And when you asked us why
We couldn't look you in your eyes,
It's hard to find life in something that's already died.


[Chorus]

D|--3-3-3-3-3-3-3-3-3-3-3-3-3-3-3-3-3-3-3-3-3------------------|
A|--3-3-3-3-3-3-3-3-3-3-3-3-3-3-3-3-3-3-3-3-3------------------|
F|--------------------2-2-2-2-2-2-2----------------------------|(x4)
C|--2-2-----2-2-2-2-2-2-2-2-2-2-2-2-2-2-2-2-2------------------|
G|--2-2-2-2-3-3-3-3-3---------------2-2-2-2-2------------------|
D|------3-3----------------------------------------------------|

You're out of line,
Buried yourself alive
And expected to be fine
You can't rewind,
When you're choking on your own dirt begging for your life

Your bridges are burning
And all the tables are turning
You started a fire and you're burning up
Oh you're burning up

D|-3--3--3--3--3--3--------------------------------------------|
A|-------------------------------------------------------------|
F|-------------------------------------------------------------|
C|-------------------------------------------------------------|(x2)
G|-------3--0--0-----------------------------------------------|
D|-0--3-----------0--------------------------------------------|

Burning up, oh burning up
Burning up, oh burning up
Burning up, oh burning up
Burning up, oh burning up


[Bridge/Solo]

D|-------------------------------------------------------------------------------------------------|
A|--8---7---5---5---5-----3~5--5----8---8---8----8----12----5----5--5-----13---13----8----8----8---|
F|---0---0---0---0---0-----0----0----0---0---0-----0----0-----0---0--0------0----0----0----0----0--|
C|-------------------------------------------------------------------------------------------------|
G|-7---5---3---3---3---3--0---0----7---7--7-----7----10----3---3---3---3-12---12----7----7---7-----|
D|-------------------------------------------------------------------------------------------------|


[Chorus]

D|--3-3-3-3-3-3-3-3-3-3-3-3-3-3-3-3-3-3-3-3-3------------------|
A|--3-3-3-3-3-3-3-3-3-3-3-3-3-3-3-3-3-3-3-3-3------------------|
F|--------------------2-2-2-2-2-2-2----------------------------|(x4)
C|--2-2-----2-2-2-2-2-2-2-2-2-2-2-2-2-2-2-2-2------------------|
G|--2-2-2-2-3-3-3-3-3---------------2-2-2-2-2------------------|
D|------3-3----------------------------------------------------|

You're out of line,
Buried yourself alive
And expected to be fine
You can't rewind,
When you're choking on your own dirt begging for your life

Your bridges are burning
And all the tables are turning
You started a fire and you're burning up
Oh you're burning up

D|-3--3--3--3--3--3--------------------------------------------|
A|-------------------------------------------------------------|
F|-------------------------------------------------------------|
C|-------------------------------------------------------------|(x2)
G|-------3--0--0-----------------------------------------------|
D|-0--3-----------0--------------------------------------------|

Burning up, oh burning up
Burning up, oh burning up
Burning up, oh burning up
Burning up, oh burning up



************************************

| /  Slide up
| ~  Vibrato

************************************

            
            
Suggest correction
Creating personal tab
Creating personal tab
You can edit any tab online and save it as your Personal.

You can edit, replace or remove any tab part or add personal notes – all changes will be seen only by you.

Personal tabs can be accessed anytime from any device, even offline.
Learn more »
Give kudos to tab author, rate the tab!
1 2 3 4 5
comments
print report bad tab
1 comment total.
0 reply
moaedfeldt1 10 Mar 05, 2017 07:05 AM

this is very good and accurate. Good job!!

guest
You may want to rate the tab now too:
select rating
Wanna post a correction for this tab? Suggest correction