Oops, an error
Loading. Please wait.

Half tab

by PVRIS
1,678 views 105 this week
1 commentread comment
1 2 3 4 5
x 4
add to favorites
×
Save as Personal and add changes to this tab that will be seen only by you. Learn more ›
×
You can save this tab as Personal to edit and correct it or add notes. All changes will be seen only by you. Learn more »
launch autoscroll
font size
0
reset
how to read this tab
guitar tuner
edit
Autoscroll
slow
fast
+/-
esc
set tempo
stop
PVRIS - HALF
HALF
-Yeah well this is one of my first tabs and this was requested and yeah I tried I guess.
i do everything by ear and it could be a lil off idk but I think this should be fine.
its easy here you go


[Intro]

e|------------|
B|------------|
G|-0----0---4-|
D|-4----4---4-|
A|-2----2---2-|
D|-2----2-----|


e|----------------------------------------------|
B|----------------------------------------------|
G|-----0----------0-------------2-------0-------| x4 3rd time the band joins in
D|--------4----------4-------5-------------4----| 
A|----------------------------------------------|
D|--2----------2----------5----------0----------|


[Verse 1]
theres a delay here so if you've got one, maybe use it? 
First time theres no gtr so just play it once

e|--------------------------------------------------------0-------|
B|-----------------------------------------------------------3----|
G|-----------------------------------4--4--4--4-----2-------------|
D|-----5--5--5--5-----5--5--5-----5--------------0-----0----------|
A|--7--------------7-----------7----------------------------------|
D|----------------------------------------------------------------|

[Pre-chorus 1]
just this in the beginning, then no gtr
e|--------------0---------------------------|
B|------------------------------------------|
G|------4-----------------------------------|
D|----5-----5-------------------------------|
A|--7---------------------------------------|
D|------------------------------------------|


[Chorus]
u could also just play chords but If you play this keep the delay :)
e|-------------------------------------------|
B|-----12-12-12---10-10-10---7-7-7---8-8-8---|
G|-------------------------------------------|
D|-------------------------------------------|   x3
A|--10---------------------9-----------------|
D|-------------------------------------------|

e|--------------------------------|
B|--12-12---10-10---7-7---8-8-----|
G|--------------------------------|
D|--------------------------------|
A|--------------------------------|
D|--------------------------------|

[Verse 2]
Just like Verse 1: First time theres no gtr so just play it once

e|--------------------------------------------------------0-------|
B|-----------------------------------------------------------3----|
G|-----------------------------------4--4--4--4-----2-------------|
D|-----5--5--5--5-----5--5--5-----5--------------0-----0----------|
A|--7--------------7-----------7----------------------------------|
D|----------------------------------------------------------------|

[Pre-chorus 2]

e|------------------------------------------------------------------------|
B|--7-7-7-8-8-8-----------------------------------------------------------|
G|--------------7-7-7-9-9-9-----------------------------------------------|
D|--------------------------7-7-7-9------------------7-7------------------|  x2
A|------------------------------------10-10-10-10-10-------9-9-9-9-7-7-7--|
D|------------------------------------------------------------------------|

[Chorus]

e|-------------------------------------------|
B|-----12-12-12---10-10-10---7-7-7---8-8-8---|
G|-------------------------------------------|
D|-------------------------------------------|   x3
A|--10---------------------9-----------------|
D|-------------------------------------------|

e|---------------------------------------|
B|--12-12---10-10---7-7---8-8-----8-8-8--|
G|---------------------------------------|
D|---------------------------------------|
A|---------------------------------------|
D|---------------------------------------|

Then youve got like the intro part thing and you can play it like this
e|----------------------------------------------|
B|----------------------------------------------|
G|-----0----------0-------------2-------0-------| x2
D|--------4----------4-------5-------------4----| 
A|----------------------------------------------|
D|--2----------2----------5----------0----------|

but if you like, you could skip the bass notes and yknow slide up to the notes (make it fancy hah) like this
and I think this is how its played here
e|----------------------------------------------|
B|----------------------------------------------|
G|----------------------------------------------| x2
D|----/5--4~-----/5--4~-----/5--7~-----/5--4~---| 
A|----------------------------------------------|
D|----------------------------------------------|

[Bridge]
there was so much effect I couldnt really hear it, but its a bridge 
so I did some improv on Em penatatonic in VII or even XII (but plz mind: its still drop D!)
Or you can just stay quier but what the fun in that

[Chorus]

Quiet part
e|---------------------------------------|
B|--12-12---10-10---7-7---8-8-----8-8-8--|
G|---------------------------------------|
D|---------------------------------------|  x4
A|---------------------------------------|
D|---------------------------------------|

e|----------------------------------------------|
B|----------------------------------------------|
G|-----0----------0-------------2-------0-------| x? Just till the end
D|--------4----------4-------5-------------4----| 
A|----------------------------------------------|
D|--2----------2----------5----------0----------|

Again: if you like, you could skip the bass notes and yknow slide up to the notes Like this
e|----------------------------------------------|
B|----------------------------------------------|
G|----------------- ----------------------------| x? Just till the end
D|----/5--4~-----/5--4~-----/5--7~-----/5--4~---| 
A|----------------------------------------------|
D|----------------------------------------------|
************************************

| /   Slide up
| \   Slide down
| ~   Vibrato

************************************ 

            
            
Suggest correction
Creating personal tab
Creating personal tab
You can edit any tab online and save it as your Personal.

You can edit, replace or remove any tab part or add personal notes – all changes will be seen only by you.

Personal tabs can be accessed anytime from any device, even offline.
Learn more »
comments
print report bad tab
1 comment total.
0 reply
louisehuon1 10 Aug 12, 2017 04:00 AM

Is there a vid on youtube for these tabs? These tabs are confusing me a little. Great job though!

guest
You may want to rate the tab now too:
select rating
Wanna post a correction for this tab? Suggest correction