Oops, an error
Loading. Please wait.

Holy bass

version 1
version 1

Whole song

by PVRIS
1,423 views 24 this week
6 commentsread comments
1 2 3 4 5
x 5
add to favorites
×
Save as Personal and add changes to this tab that will be seen only by you. Learn more ›
×
You can save this tab as Personal to edit and correct it or add notes. All changes will be seen only by you. Learn more »
launch autoscroll
font size
0
reset
guitar tuner
edit
Autoscroll
slow
fast
+/-
esc
set tempo
stop
Author
Difficulty
[Intro] - 00.07 - 00.23

G|---------------------------------------------------------------------------|
D|---------------------------------------------------------------------------|
A|-7-7-7-7-7-7-7-7-7-7-7-7-7-9-9-9-------------------------------------------|
E|---------------------------------4-4-4-4-4-4-4-4-4-4-4-4-4-7-7-7-----------| x2


[Verse] - 00.23 - 00.54

G|---------------------------------------------------------------------------|
D|---------------------------------------------------------------------------|
A|-7-7-7-7-7-7-7-7-7-7-7-7-7-9-9-9-------------------------------------------|
E|---------------------------------4-4-4-4-4-4-4-4-4-4-4-4-4-7-7-7-----------| x4


[Pre-Chorus] - 00.54 - 01.25

G|---------------------------------------------------------------------------|
D|---------------------------------------------------------------------------|
A|-7-7-7-7-7-7-7-7-7-7-7-7-7-9-9-9-------------------------------------------|
E|---------------------------------4-4-4-4-4-4-4-4-4-4-4-4-4-7-7-7-----------| x4


[Chorus] - 01.25 - 01.56

G|---------------------------------------------------------------------------|
D|---------------------------------------------------------------------------|
A|-7~----------------------7-9-9-9-------------------------------------------|
E|---------------------------------4~----------------------4-7-7-7-----------| x4


[Verse] - 01.56 - 02.11

G|---------------------------------------------------------------------------|
D|---------------------------------------------------------------------------|
A|-7~------------------------9-9-9-------------------------------------------|
E|---------------------------------4-4-4-4-4-4-4-4-4-4-4-4-4-7-7-7-----------| 

G|---------------------------------------------------------------------------|
D|---------------------------------------------------------------------------|
A|-7-7-7-7-7-7-7-7-7-7-7-7-7-9-9-9-------------------------------------------|
E|---------------------------------4-4-4-4-4-4-4-4-4-4-4-4-4-7-7-7-----------|


[Pre-Chorus] - 02.11 - 02.42
G|---------------------------------------------------------------------------|
D|---------------------------------------------------------------------------|
A|-7-7-7-7-7-7-7-7-7-7-7-7-7-9-9-9-------------------------------------------|
E|---------------------------------4-4-4-4-4-4-4-4-4-4-4-4-4-7-7-7-----------| x4


[Chorus] - 02.41 - 03.13

G|---------------------------------------------------------------------------|
D|---------------------------------------------------------------------------|
A|-7~----------------------7-9-9-9-------------------------------------------|
E|---------------------------------4~----------------------4-7-7-7-----------| x4


[Bridge] (Come in at...) - 03.21 - 03.29

G|---------------------------------------------------------------------------|
D|---------------------------------------------------------------------------|
A|-7~----------------------7-9-9-9-------------------------------------------|
E|---------------------------------4~----------------------------------------| 


[Outro] - 03.29 - End.

G|---------------------------------------------------------------------------|
D|---------------------------------------------------------------------------|
A|-7~----------------------7-9-9-9-------------------------------------------|
E|---------------------------------4~----------------------4-7-7-7-----------| x8

            
            
Suggest correction
Creating personal tab
Creating personal tab
You can edit any tab online and save it as your Personal.

You can edit, replace or remove any tab part or add personal notes – all changes will be seen only by you.

Personal tabs can be accessed anytime from any device, even offline.
Learn more »
comments
print report bad tab
6 comments total. Showing first comments.
0 reply
cindelguerrero 2,400 Apr 05, 2016 04:32 PM

This sounds off to me, I think really the only note that's accurate is the E (7th fret) on the A string.

0 reply
Mikeylc 61 Jun 28, 2017 03:41 AM

On the chorus, etc it drops down to low E, F#. Also a ton easier to play in 2nd position than to keep moving up and down the neck. Not sure why Brian plays it that way but it's alot of work to play the exact same thing.

guest
You may want to rate the tab now too:
select rating
Wanna post a correction for this tab? Suggest correction