Oops, an error
Loading. Please wait.
We have Chord Pro version of My House.
It's the closest thing you can get to the original song and it has interactive parts. Check out the tab »
×

My House Tab

version 2
version 2

Whole song

  • How Alex plays the song live, the bridge is a mix of Lynn's parts.

Interactive

by PVRIS
454 views 12 this week
no commentswrite comment
1 2 3 4 5
1 last vote to show rating
add to favorites
launch autoscroll
font size
0
reset
how to read this tab
guitar tuner
Autoscroll
slow
fast
+/-
esc
set tempo
stop
Author
Difficulty
Tuning
novice
C G C F A D
About this tab version
How Alex plays the song live, the bridge is a mix of Lynn's parts. Was this info helpful? Yes No
[Chorus]
(0:30 - 1:00)

D|---------------------------------------------------------------------------|
A|---------------------------------------------------------------------------|
F|-7-7-7-7-7-7-7-7--9-9-9-9-9-9-9--4-4-4-4-4-4-4-4--2-2-2-2-2--x-x-x-x-------|
C|-7-7-7-7-7-7-7-7--9-9-9-9-9-9-9--4-4-4-4-4-4-4-4--2-2-2-2-2--x-x-x-x-------|
G|-5-5-5-5-5-5-5-5--9-9-9-9-9-9-9--4-4-4-4-4-4-4-4--2-2-2-2-2--x-x-x-x-------|
C|---------------------------------------------------------------------------|

D|---------------------------------------------------------------------------|
A|---------------------------------------------------------------------------|
F|-7-7-7-7-7-7-7-7--9-9-9-9-9-9-9-9--4-4-4-4-4-4-4/-7-7-7-7--2/12\2----------|
C|-7-7-7-7-7-7-7-7--9-9-9-9-9-9-9-9--4-4-4-4-4-4-4/-7-7-7-7--2/12\2----------|
G|-5-5-5-5-5-5-5-5--9-9-9-9-9-9-9-9--4-4-4-4-4-4-4/-7-7-7-7--2/12\2----------|
C|---------------------------------------------------------------------------|

D|--------------------------------------------------------------------------------|
A|-7-7-7-7-7-7-7--15-15-15-15-15-15-15-15--10-10-10-10-10-10-10-10--9-9-9-9-9-9-9-|
F|-7-7-7-7-7-7-7--16-16-16-16-16-16-16-16--11-11-11-11-11-11-11-11--9-9-9-9-9-9-9-|
C|--------------------------------------------------------------------------------|
G|-5-5-5-5-5-5-5--14-14-14-14-14-14-14-14--9--9--9--9--9--9--9--9---7-7-7-7-7-7-7-|
C|--------------------------------------------------------------------------------|

D|-----------------------------------------------------------------------------------------|
A|-7-7-7-7-7-7-7--15-15-15-15-15-15-15-15--10-10-10-10-10-10-10-10-10-10-10-10-10-10-10-10-|
F|-7-7-7-7-7-7-7--16-16-16-16-16-16-16-16--11-11-11-11-11-11-11-11-11-11-11-11-11-11-11-11-|
C|-----------------------------------------------------------------------------------------|
G|-5-5-5-5-5-5-5--14-14-14-14-14-14-14-14--9--9--9--9--9--9--9--9--9--9--9--9--9--9--9--9--|
C|-----------------------------------------------------------------------------------------|


[Chorus Repeated]
(1:37 - 2:08)

D|---------------------------------------------------------------------------|
A|---------------------------------------------------------------------------|
F|-7-7-7-7-7-7-7-7--9-9-9-9-9-9-9--4-4-4-4-4-4-4-4--2-2-2-2-2--x-x-x-x-------|
C|-7-7-7-7-7-7-7-7--9-9-9-9-9-9-9--4-4-4-4-4-4-4-4--2-2-2-2-2--x-x-x-x-------|
G|-5-5-5-5-5-5-5-5--9-9-9-9-9-9-9--4-4-4-4-4-4-4-4--2-2-2-2-2--x-x-x-x-------|
C|---------------------------------------------------------------------------|

D|---------------------------------------------------------------------------|
A|---------------------------------------------------------------------------|
F|-7-7-7-7-7-7-7-7--9-9-9-9-9-9-9-9--4-4-4-4-4-4-4/-7-7-7-7--2/12\2----------|
C|-7-7-7-7-7-7-7-7--9-9-9-9-9-9-9-9--4-4-4-4-4-4-4/-7-7-7-7--2/12\2----------|
G|-5-5-5-5-5-5-5-5--9-9-9-9-9-9-9-9--4-4-4-4-4-4-4/-7-7-7-7--2/12\2----------|
C|---------------------------------------------------------------------------|

D|--------------------------------------------------------------------------------|
A|-7-7-7-7-7-7-7--15-15-15-15-15-15-15-15--10-10-10-10-10-10-10-10--9-9-9-9-9-9-9-|
F|-7-7-7-7-7-7-7--16-16-16-16-16-16-16-16--11-11-11-11-11-11-11-11--9-9-9-9-9-9-9-|
C|--------------------------------------------------------------------------------|
G|-5-5-5-5-5-5-5--14-14-14-14-14-14-14-14--9--9--9--9--9--9--9--9---7-7-7-7-7-7-7-|
C|--------------------------------------------------------------------------------|

D|-----------------------------------------------------------------------------------------|
A|-7-7-7-7-7-7-7--15-15-15-15-15-15-15-15--10-10-10-10-10-10-10-10-10-10-10-10-10-10-10-10-|
F|-7-7-7-7-7-7-7--16-16-16-16-16-16-16-16--11-11-11-11-11-11-11-11-11-11-11-11-11-11-11-11-|
C|-----------------------------------------------------------------------------------------|
G|-5-5-5-5-5-5-5--14-14-14-14-14-14-14-14--9--9--9--9--9--9--9--9--9--9--9--9--9--9--9--9--|
C|-----------------------------------------------------------------------------------------|


[Bridge]
(2:22 - 2:52)

D|----------------------------------------------------------------------------|
A|----------------------------------------------------------------------------|
F|----------------------------------------------------------------------------|
C|-4/xxxxxxxxxxxxxxxxxxxxxxxxxxxxxxxxxxxxxxxxxxxxxxxxx------------------------|
G|-4/xxxxxxxxxxxxxxxxxxxxxxxxxxxxxxxxxxxxxxxxxxxxxxxxx------------------------|
C|-4/xxxxxxxxxxxxxxxxxxxxxxxxxxxxxxxxxxxxxxxxxxxxxxxxx------------------------| [4x]


[Chorus Outro]
(3:21 - 3:57)

D|-----------------------------------------------------------------------------|
A|-----------------------------------------------------------------------------|
F|-2/12\2--7-7-7-7-7-7-7-7--9-9-9-9-9-9-9--4-4-4-4-4-4-4-4--2-2-2-2-2--x-x-x-x-|
C|-2/12\2--7-7-7-7-7-7-7-7--9-9-9-9-9-9-9--4-4-4-4-4-4-4-4--2-2-2-2-2--x-x-x-x-|
G|-2/12\2--5-5-5-5-5-5-5-5--9-9-9-9-9-9-9--4-4-4-4-4-4-4-4--2-2-2-2-2--x-x-x-x-|
C|-----------------------------------------------------------------------------|

D|---------------------------------------------------------------------------|
A|---------------------------------------------------------------------------|
F|-7-7-7-7-7-7-7-7--9-9-9-9-9-9-9-9--4-4-4-4-4-4-4-4-4-4-4-4-4-4-4-4---------|
C|-7-7-7-7-7-7-7-7--9-9-9-9-9-9-9-9--4-4-4-4-4-4-4-4-4-4-4-4-4-4-4-4---------|
G|-5-5-5-5-5-5-5-5--9-9-9-9-9-9-9-9--4-4-4-4-4-4-4-4-4-4-4-4-4-4-4-4---------|
C|---------------------------------------------------------------------------|

D|---------------------------------------------------------------------------|
A|---------------------------------------------------------------------------|
F|-7-7-7-7-7-7-7-7-7--9-9-9-9-9-9-9-9--4-4-4-4-4-4-4-4--2-2-2-2-2-2-2--------|
C|-7-7-7-7-7-7-7-7-7--9-9-9-9-9-9-9-9--4-4-4-4-4-4-4-4--2-2-2-2-2-2-2--------|
G|-5-5-5-5-5-5-5-5-5--9-9-9-9-9-9-9-9--4-4-4-4-4-4-4-4--2-2-2-2-2-2-2--------|
C|---------------------------------------------------------------------------|

D|---------------------------------------------------------------------------|
A|---------------------------------------------------------------------------|
F|-0-0-0-0-0-0-0-0--9-9-9-9-9-9-9-9--4-4-4-4-4-4-4-4-4-4-4-4-4-4-4-4---------|
C|-0-0-0-0-0-0-0-0--9-9-9-9-9-9-9-9--4-4-4-4-4-4-4-4-4-4-4-4-4-4-4-4---------|
G|-0-0-0-0-0-0-0-0--9-9-9-9-9-9-9-9--4-4-4-4-4-4-4-4-4-4-4-4-4-4-4-4---------|
C|---------------------------------------------------------------------------|  



************************************

| x   Dead note
| /   Slide up
| \   Slide down

************************************
Suggest correction
Give kudos to tab author, rate the tab!
1 2 3 4 5
comments
print report bad tab
guest
You may want to rate the tab now too:
select rating
Wanna post a correction for this tab? Suggest correction