Oops, an error
Loading. Please wait.
We have Chord Pro version of My House.
It's the closest thing you can get to the original song and it has interactive parts. Check out the tab »
×

My House Acoustic tab

version 3
version 3

Whole song

Interactive

by PVRIS
1,927 views 3 this week
no commentswrite comment
1 2 3 4 5
x 3
add to favorites
×
Save as Personal and add changes to this tab that will be seen only by you. Learn more ›
×
You can save this tab as Personal to edit and correct it or add notes. All changes will be seen only by you. Learn more »
launch autoscroll
font size
0
reset
how to read this tab
guitar tuner
edit
Autoscroll
slow
fast
+/-
esc
set tempo
stop
Author
Difficulty
My House Acoustic - Pvris
Tabbed by: elise
Tuning: Standard

Here is the tab for the acoustic version of My House perfomed at Journey's Live.
The song is usually played in drop C so if you want to play it in drop C all you have to do 
is play this 2 frets up (an 7 become a 9).  
Lynns'part : Check out the video to find the rythm that she plays 
(https://www.youtube.com/watch?v=JcXoFmyiGsI)

[Only during the chorus]
e|---5------8-------5------3-------------------------------------------------|
B|---6------6-------6------5-------------------------------------------------|
G|---7------7-------7------5-------------------------------------------------|
D|---------------------------------------------------------------------------|
A|---------------------------------------------------------------------------|
E|---------------------------------------------------------------------------|

[Bridge]
e|--10---10---12---12---13---13---13---13------------------------------------|
B|---10---10---10---10---10---10---10---10-----------------------------------|
G|---------------------------------------------------------------------------|
D|---------------------------------------------------------------------------|
A|---------------------------------------------------------------------------|
E|---------------------------------------------------------------------------|

[Alex part]
[Verses]
e|---------------------------------------------------------------------------|
B|---6-/--10--/--5----6--/--10--/--3-----------------------------------------|
G|---------------------------------------------------------------------------|
D|---------------------------------------------------------------------------|
A|---5-/--8---/--3----5-----8---/--1-----------------------------------------|
E|---------------------------------------------------------------------------|

[Chorus](in the video he plays open chords but as he is in drop C, it doesn't sounds 
really good if we do like him, still, if you play in drop C, you have to play open C,Am,Em,G)
e|----6---3---5---1----------------------------------------------------------|
B|----6---3---6---1----------------------------------------------------------|
G|----7---3---7---3----------------------------------------------------------|
D|----8---5---7---2----------------------------------------------------------|
A|----8---5---5---2----------------------------------------------------------|
E|----6---3---x---1----------------------------------------------------------|

[Bridge]
e|---------------------------------------------------------------------------|
B|-----6----/---8----/--10----/---13-----------------------------------------|
G|---------------------------------------------------------------------------|
D|---------------------------------------------------------------------------|
A|---5----5-/-7----7-/-8----8-/-12----12-------------------------------------|
E|---------------------------------------------------------------------------|

************************************

| /  Slide up
| x  Dead note

************************************

            
            
Suggest correction
Creating personal tab
Creating personal tab
You can edit any tab online and save it as your Personal.

You can edit, replace or remove any tab part or add personal notes – all changes will be seen only by you.

Personal tabs can be accessed anytime from any device, even offline.
Learn more »
Give kudos to tab author, rate the tab!
1 2 3 4 5
comments
print report bad tab
guest
You may want to rate the tab now too:
select rating
Wanna post a correction for this tab? Suggest correction