Oops, an error
Loading. Please wait.
We have Chord Pro version of My House.
It's the closest thing you can get to the original song and it has interactive parts. Check out the tab »
×

My House Acoustic tab

version 5
version 5

Whole song

Interactive

by PVRIS
43 views 15 this week
no commentswrite comment
1 2 3 4 5
3 more votes to show rating
add to favorites
×
Save as Personal and add changes to this tab that will be seen only by you. Learn more ›
×
You can save this tab as Personal to edit and correct it or add notes. All changes will be seen only by you. Learn more »
launch autoscroll
font size
0
reset
how to read this tab
guitar tuner
edit
Autoscroll
slow
fast
+/-
esc
set tempo
stop
When Pvris play this song acoustically they do it one step down than the studio version, also 
Alex uses a drop C tuning but this tab is for the standard one. 
I think it's all correct except for the bridge that I'm not too sure about. 

[Verse 1]
e|---------------------------------------------------------------------------|
B|---------6--------10--------5------------------------------6-----10----5---|
G|---------------------------------------------------------------------------|
D|---------------------------------------------------------------------------|
A|---------5--------8---------3------------------------------5-----8-----1---|
E|---------------------------------------------------------------------------| (x4)
I feel you in these walls         You're a cold air creeping in ...


[Chorus]
Bb, Gm, Dm, C    Bb, Gm, Dm, F  (x2)


[Verse 2] 
e|---------------------------------------------------------------------------|
B|---------6--------10--------5------------------------------6-----10----5---|
G|---------------------------------------------------------------------------|
D|---------------------------------------------------------------------------|
A|---------5--------8---------3------------------------------5-----8-----1---|
E|---------------------------------------------------------------------------| (x4)
I feel you in these walls         You're a cold air creeping in ...

[Chorus]
e|---------------------------------------------------------------------------|
B|---------6--------10--------5------------------------------6-----10----5---|
G|---------------------------------------------------------------------------|
D|---------------------------------------------------------------------------|
A|---------5--------8---------3------------------------------5-----8-----1---|
E|---------------------------------------------------------------------------| (x4)
I feel you in these walls         You're a cold air creeping in ...

[Bridge]
e|---------------------------------------------------------------------------|
B|---3----5----6----10-------------------------------------------------------|
G|---------------------------------------------------------------------------|
D|---------------------------------------------------------------------------|
A|---1----3----5----8--------------------------------------------------------|
E|---------------------------------------------------------------------------| (x1)
                             
e|---------------------------------------------------------------------------|
B|---3---3---3-----5---5---5-----6---6---6--------------10---10---10---------|
G|---------------------------------------------------------------------------|
D|---------------------------------------------------------------------------|
A|---1--1----------3--3----------5---5------------------8--8-----------------|
E|---------------------------------------------------------------------------| (x2)
     Haven't you heard?          I'm not yours anymore  I'm not yours anymore... 


Bb           C 
 Haven't you heard?
Dm       
 I'm not yours anymore
F
 I'm not yours anymore ...

e|---------------------------------------------------------------------------|
B|---------6--------10--------5----------------------------------------------|
G|---------------------------------------------------------------------------|
D|---------------------------------------------------------------------------|
A|---------5--------8---------3----------------------------------------------|
E|---------------------------------------------------------------------------| 
I feel you in these walls        

e|---------------------------------------------------------------------------|
B|-------------------------6------------10---------------5-------------------|
G|---------------------------------------------------------------------------|
D|---------------------------------------------------------------------------|
A|-------------------------5------------8----------------1-------------------|
E|---------------------------------------------------------------------------| 
You're a cold air creeping in, Chill me to my bones and skin

[Chorus]
e|---------------------------------------------------------------------------|
B|---------6--------10--------5------------------------------6-----10----5---|
G|---------------------------------------------------------------------------|
D|---------------------------------------------------------------------------|
A|---------5--------8---------3------------------------------5-----8-----1---|
E|---------------------------------------------------------------------------| (x4)
I feel you in these walls         You're a cold air creeping in ...

[Outro]
Bb, Gm, Dm, C    Bb, Gm, Dm, F
Suggest correction
Creating personal tab
Creating personal tab
You can edit any tab online and save it as your Personal.

You can edit, replace or remove any tab part or add personal notes – all changes will be seen only by you.

Personal tabs can be accessed anytime from any device, even offline.
Learn more »
Give kudos to tab author, rate the tab!
1 2 3 4 5
comments
print report bad tab
guest
You may want to rate the tab now too:
select rating
Wanna post a correction for this tab? Suggest correction