Oops, an error
Loading. Please wait.

Smoke bass

version 2
version 2

Whole song

  • Tabbed in accordance with their live versions. Onl... Show more
by PVRIS
508 views 3 this week
no commentswrite comment
1 2 3 4 5
2 more votes to show rating
add to favorites
×
Save as Personal and add changes to this tab that will be seen only by you. Learn more ›
×
You can save this tab as Personal to edit and correct it or add notes. All changes will be seen only by you. Learn more »
launch autoscroll
font size
0
reset
guitar tuner
edit
Autoscroll
slow
fast
+/-
esc
set tempo
stop
I did a cover of this, so if you're having trouble figuring it out, this may help:
https://m.youtube.com/watch?v=01BBcHdYas4

Intro

F|---------------------------------------------------------------------------|
C|---------------------------------------------------------------------------| x2
G|-8-8-8~--6-6~-----------------1-1-1~---------------------------------------|
C|--------------------------------------3-3~---------------------------------|

First Verse

F|---------------------------------------------------------------------------|
C|---------------------------------------------------------------------------|
G|-8-11-8-----6-8-6-----3-6-3---1-4-1----------------------------------------|
C|---------------------------------------3-6-3----3-1-1~---------------------|
                                                                                  
F|---------------------------------------------------------------------------|
C|---------------------------------------------------------------------------|
G|-8-11-8-----6-8-6-----3-6-3---1-4-1----------------------------------------|
C|---------------------------------------3-6-3----3-1~-----------------------|

Chorus

F|---------------------------------------------------------------------------|
C|---------------------------------------------------------------------------| x2
G|-8-8-8~--6-6~-----------------1-1-1~---------------------------------------|
C|--------------------------------------3-3~---------------------------------|

Second Verse

F|---------------------------------------------------------------------------|
C|---------------------------------------------------------------------------|
G|-8-11-8-----6-8-6-----3-6-3---1-4-1----------------------------------------|
C|---------------------------------------3-6-3----3-1-1~---------------------|

F|---------------------------------------------------------------------------|
C|---------------------------------------------------------------------------|
G|-8-11-8-----6-8-6-----3-6-3----1-4-1---------------------------------------|
C|---------------------------------------3-6-3----3-1~-----------------------|

Chorus

F|---------------------------------------------------------------------------|
C|---------------------------------------------------------------------------| x4
G|-8-8-8~--6-6~-----------------1-1-1~---------------------------------------|
C|--------------------------------------3-3~---------------------------------|

Bridge (starts just before Lynn says "You're just a ghost of blissful feelings...")

F|---------------------------------------------------------------------------|
C|---------------------------------------------------------------------------|
G|---------------------------------------------------------------------------|
C|-6-6-6-6-6-6-6-6-6-6-6-6-6-6-6-6-8-8-8-8-8-8-8-8-8-8-8-8-8-8-8-8-----------|

F|---------------------------------------------------------------------------|
C|---------------------------------------------------------------------------|
G|---------------------------------------------------------------------------|
C|-3-3-3-3-3-3-3-3-3-3-3-3-3-3-3-3-3-3-3-3-3-3-3-3-3-3-3-3-3-3-3-3-----------|

F|---------------------------------------------------------------------------|
C|---------------------------------------------------------------------------| 
G|---------------------------------------------------------------------------|
C|-6-6-6-6-6-6-6-6-6-6-6-6-6-6-6-6-8-8-8-8-8-8-8-8-8-8-8-8-8-8-8-8-----------|

F|---------------------------------------------------------------------------|
C|---------------------------------------------------------------------------|
G|---------------------------------------------------------------------------|
C|-3-3-3-3-3-3-3-3-3-3-3-3-3-3-3-3-3-3-3-3-3-3-3-3-3-3-3-3-3-3-3-3-----------|

F|---------------------------------------------------------------------------|
C|---------------------------------------------------------------------------| 
G|---------------------------------------------------------------------------|
C|-6-6-6-6-6-6-6-6-6-6-6-6-6-6-6-6-8-8-8-8-8-8-8-8-8-8-8-8-8-8-8-8-----------|

F|---------------------------------------------------------------------------|
C|---------------------------------------------------------------------------| 
G|---------------------------------------------------------------------------|
C|-3~------------------------------------------------------------------------|
   (hold it)

Last Chorus/Outro (starts when she says "Oh you're killing me right now...")

F|---------------------------------------------------------------------------|
C|---------------------------------------------------------------------------| 
G|-8-8-8~--6-6~-----------------1-1-1~---------------------------------------|
C|--------------------------------------3-3~---------------------------------|

F|---------------------------------------------------------------------------|
C|---------------------------------------------------------------------------| 
G|-8-8-8~--6-6~-----------------1-1-1~---------------------------------------|
C|---------------------------------------------------------------------------|

| /  slide up
| \  slide down
| h  hammer-on
| p  pull-off
| ~  vibrato
| +  harmonic
| x  Mute note
===============================================================================
Suggest correction
Creating personal tab
Creating personal tab
You can edit any tab online and save it as your Personal.

You can edit, replace or remove any tab part or add personal notes – all changes will be seen only by you.

Personal tabs can be accessed anytime from any device, even offline.
Learn more »
Give kudos to tab author, rate the tab!
1 2 3 4 5
comments
print report bad tab
guest
You may want to rate the tab now too:
select rating
Wanna post a correction for this tab? Suggest correction