Oops, an error
Loading. Please wait.

Smoke tab

version 2
version 2

Whole song

  • Tabbed in accordance with their live versions. Onl... Show more
by PVRIS
1,057 views 1 this week
no commentswrite comment
1 2 3 4 5
3 more votes to show rating
add to favorites
×
Save as Personal and add changes to this tab that will be seen only by you. Learn more ›
×
You can save this tab as Personal to edit and correct it or add notes. All changes will be seen only by you. Learn more »
launch autoscroll
font size
0
reset
how to read this tab
guitar tuner
edit
Autoscroll
slow
fast
+/-
esc
set tempo
stop
PVRIS - SMOKE (White Noise)

TUNING : Standard E
For exact timing listen to the song.


INTRO: 2x

E|---------11----------------7----------6---------------------------------------------------------|
B|------11-------14--------7----------7-----------------------------------------------------------|
G|---11------------------8----------8-------------------------------------------------------------|
D|13----------11-------9----------8---------------------------------------------------------------|
A|------------------------------------------------------------------------------------------------|
E|------------------------------------------------------------------------------------------------|


VERSE: BASS part
This isn't violence this is just a war in my head,
I give it time but it never seems to end.
I feel a fire in the back of my throat,
So let's get covered in flames and play some games with the smoke.

You said

CHORUS:

"don't you try to run right now,
E|---------11----------------7----------6---------------------------------------------------------|
B|------11-------14--------7----------7-----------------------------------------------------------|
G|---11------------------8----------8-------------------------------------------------------------|
D|13----------11-------9----------8---------------------------------------------------------------|
A|------------------------------------------------------------------------------------------------|
E|------------------------------------------------------------------------------------------------|

cause baby I could burn you down."
E|---------11----------------7----------6---------------------------------------------------------|
B|------11-------14--------7----------7-----------------------------------------------------------|
G|---11------------------8----------8-------------------------------------------------------------|
D|13----------11-------9----------8---------------------------------------------------------------|
A|------------------------------------------------------------------------------------------------|
E|------------------------------------------------------------------------------------------------|

(Yeah)

VERSE: BASS part
You make your way into my veins,
Course right through my limbs and dig your way into my brain,
So in the second that you walk, walk into a room,
I can't help myself from the things that you do.


CHORUS:

Oh, you're killing me right now. (You're killing me killing me right now)
E|---------11----------------7----------6---------------------------------------------------------|
B|------11-------14--------7----------7-----------------------------------------------------------|
G|---11------------------8----------8-------------------------------------------------------------|
D|13----------11-------9----------8---------------------------------------------------------------|
A|------------------------------------------------------------------------------------------------|
E|------------------------------------------------------------------------------------------------|

I think it's time you burn me down.
E|---------11----------------7----------6---------------------------------------------------------|
B|------11-------14--------7----------7-----------------------------------------------------------|
G|---11------------------8----------8-------------------------------------------------------------|
D|13----------11-------9----------8---------------------------------------------------------------|
A|------------------------------------------------------------------------------------------------|
E|------------------------------------------------------------------------------------------------|

Oh, I love the things we do when it's just me and you,
E|---------11----------------7----------6---------------------------------------------------------|
B|------11-------14--------7----------7-----------------------------------------------------------|
G|---11------------------8----------8-------------------------------------------------------------|
D|13----------11-------9----------8---------------------------------------------------------------|
A|------------------------------------------------------------------------------------------------|
E|------------------------------------------------------------------------------------------------|

I'm burning up, burning up. Oh, burning up.
E|---------11----------------7----------6---------------------------------------------------------|
B|------11-------14--------7----------7-----------------------------------------------------------|
G|---11------------------8----------8-------------------------------------------------------------|
D|13----------11-------9----------8---------------------------------------------------------------|
A|------------------------------------------------------------------------------------------------|
E|------------------------------------------------------------------------------------------------|

(Yeah)

BRIDGE:

E|------------------------------------------------------------------------------------------------|
B|11-11-11-11-11-11-11-11-12-12-12-12-11-11-11-11-------------------------------------------------|
G|------------------------------------------------------------------------------------------------|
D|------------------------------------------------------------------------------------------------|
A|------------------------------------------------------------------------------------------------|
E|------------------------------------------------------------------------------------------------|

E|------------------------------------------------------------------------------------------------|
B|11-11-11-11-11-11-11-11-12-12-12-12-11-11-11-11-------------------------------------------------|
G|------------------------------------------------------------------------------------------------|
D|------------------------------------------------------------------------------------------------|
A|------------------------------------------------------------------------------------------------|
E|------------------------------------------------------------------------------------------------|

Oh, you're killing me right now.
E|------------------------------------------------------------------------------------------------|
B|11-11-11-11-11-11-11-11-12-12-12-12-11-11-11-11-------------------------------------------------|
G|------------------------------------------------------------------------------------------------|
D|------------------------------------------------------------------------------------------------|
A|------------------------------------------------------------------------------------------------|
E|------------------------------------------------------------------------------------------------|

I think it's time you burn me down.
E|------------------------------------------------------------------------------------------------|
B|11-11-11-11-11-11-11-11-12-12-12-12-11-11-11-11-------------------------------------------------|
G|------------------------------------------------------------------------------------------------|
D|------------------------------------------------------------------------------------------------|
A|------------------------------------------------------------------------------------------------|
E|------------------------------------------------------------------------------------------------|


BASS part:

You're just a ghost of blissful feelings,
A cloud of smoke that I keep breathing,
An illusion, I'm losing you to the games in my mind.
(Ooooh)

BRIDGE:

I see your face, an apparition, But now it's changed, Shape shifting, Don't wanna open my eyes. (Ooooh) (Ooooh)
E|7----------6----------11-------------------------------------------------------------------------|
B|7----------7----------11-------------------------------------------------------------------------|
G|8----------8----------11-------------------------------------------------------------------------|
D|9----------8----------13-------------------------------------------------------------------------|
A|-------------------------------------------------------------------------------------------------|
E|-------------------------------------------------------------------------------------------------|

E|7----------6----------11-------------------------------------------------------------------------|
B|7----------7----------11-------------------------------------------------------------------------|
G|8----------8----------11-------------------------------------------------------------------------|
D|9----------8----------13-------------------------------------------------------------------------|
A|-------------------------------------------------------------------------------------------------|
E|-------------------------------------------------------------------------------------------------|

"Hey!"


CHORUS/OUTRO:
                                                (Yeah)  
E|------------------------------------------------------------------------------------------------|
B|11-11-11-11-11-11-11-11-12-12-12-12-11-11-11-11-------------------------------------------------|
G|------------------------------------------------------------------------------------------------|
D|------------------------------------------------------------------------------------------------|
A|------------------------------------------------------------------------------------------------|
E|------------------------------------------------------------------------------------------------|
                                (Ooooh)
E|------------------------------------------------------------------------------------------------|
B|11-11-11-11-11-11-11-11-12-12-12-12-11-11-11-11-------------------------------------------------|
G|------------------------------------------------------------------------------------------------|
D|------------------------------------------------------------------------------------------------|
A|------------------------------------------------------------------------------------------------|
E|------------------------------------------------------------------------------------------------|

Oh, you're killing me right now. (The things we do me and you.)
E|------------------------------------------------------------------------------------------------|
B|11-11-11-11-11-11-11-11-12-12-12-12-11-11-11-11-------------------------------------------------|
G|------------------------------------------------------------------------------------------------|
D|------------------------------------------------------------------------------------------------|
A|------------------------------------------------------------------------------------------------|
E|------------------------------------------------------------------------------------------------|

E|------------------------------------------------------------------------------------------------|
B|11-11-11-11-11-11-11-11-12-12-12-12-11-11-11-11-------------------------------------------------|
G|------------------------------------------------------------------------------------------------|
D|------------------------------------------------------------------------------------------------|
A|------------------------------------------------------------------------------------------------|
E|------------------------------------------------------------------------------------------------|


Sorry, but I don't know what is playing the 2nd guitar at the end.
Please let me know if you have any corrections. 
Thank you!

            
            
Suggest correction
Creating personal tab
Creating personal tab
You can edit any tab online and save it as your Personal.

You can edit, replace or remove any tab part or add personal notes – all changes will be seen only by you.

Personal tabs can be accessed anytime from any device, even offline.
Learn more »
Give kudos to tab author, rate the tab!
1 2 3 4 5
comments
print report bad tab
guest
You may want to rate the tab now too:
select rating
Wanna post a correction for this tab? Suggest correction