Oops, an error
Loading. Please wait.

Smoke Tab

version 3
version 3

Whole song

  • Tabbed in accordance with their live versions. Onl... Show more
49 views 1 this week
no commentswrite comment
1 2 3 4 5
2 more votes to show rating
add to favorites
launch autoscroll
font size
0
reset
how to read this tab
guitar tuner
Autoscroll
slow
fast
+/-
esc
set tempo
stop
Help us to improve Ultimate-Guitar.com Take our survey!
×
Author
Difficulty
Tuning
Capo
intermediate
C G C F A D
1st fret
About this tab version
Tabbed in accordance with their live versions. Only difference is the tuning, which is in Drop C and uses a capo on the 1st fret of the rhythm guitar. Was this info helpful? Yes No
Tabbed by: Joshua Garcia (joshuag523@aol.com)

Tabs for the song: Smoke by PVRIS
Please rate and let me know if you have any corrections. Thank you.


This song was tabbed in accordance with their live videos, in which they play in Drop C.
Their live video can be found here: https://www.youtube.com/watch?v=lqybY6G45Bw


Tuning: Guitar 1: Drop C (C G C F A D)
        Guitar 2: Drop C (C G C F A D) *Capo on 1st fret* or Drop C#


[Intro]
Guitar 1:
D||-----------13~-----------------------9~------------8~--|
A||--------13--------16~--------------9-------------9-----|
F||-----13-------------------------10------------10-------|
C||--15-------------------------11------------10----------| x2
G||-------------------------------------------------------|
C||-------------------------------------------------------|


Guitar 2:
D||-------------------------------------------------|
A||-------------------------------------------------|
F||--4-4-4~------2-2-2~--------9-9-9~-------4-4-4~--|
C||--5-5-5~------4-4-4~--------101010~------5-5-5~--| x2
G||--2-2-2~------0-0-0~--------7-7-7~-------2-2-2~--|
C||--2-2-2~------0-0-0~--------7-7-7~-------2-2-2~--|



[Chorus]
Guitar 1:
D||-----------13~-----------------------9~------------8~--|
A||--------13--------16~--------------9-------------9-----|
F||-----13-------------------------10------------10-------|
C||--15-------------------------11------------10----------| x2
G||-------------------------------------------------------|
C||-------------------------------------------------------|


Guitar 2:
D||-------------------------------------------------|
A||-------------------------------------------------|
F||--4-4-4~------2-2-2~--------9-9-9~-------4-4-4~--|
C||--5-5-5~------4-4-4~--------101010~------5-5-5~--| x2
G||--2-2-2~------0-0-0~--------7-7-7~-------2-2-2~--|
C||--2-2-2~------0-0-0~--------7-7-7~-------2-2-2~--|



[Chorus]
Guitar 1:
D||-----------13~-----------------------9~------------8~--|
A||--------13--------16~--------------9-------------9-----|
F||-----13-------------------------10------------10-------|
C||--15-------------------------11------------10----------| x4
G||-------------------------------------------------------|
C||-------------------------------------------------------|


Guitar 2:
D||-------------------------------------------------|
A||-------------------------------------------------|
F||--4-4-4~------2-2-2~--------9-9-9~-------4-4-4~--|
C||--5-5-5~------4-4-4~--------101010~------5-5-5~--| x4
G||--2-2-2~------0-0-0~--------7-7-7~-------2-2-2~--|
C||--2-2-2~------0-0-0~--------7-7-7~-------2-2-2~--|



[Bridge]
Guitar 1 (Tremelo Picking):
D||---------------------------------------------------------------------|
A||-1313131313131313131313131313131313b14141414141414r1313131313131313--|
F||---------------------------------------------------------------------|
C||---------------------------------------------------------------------| x4
G||---------------------------------------------------------------------|
C||---------------------------------------------------------------------|



[Interlude]
Guitar 1:
D||--8~---------9~---------13~--|
A||--9~---------9~---------13~--|
F||--10~--------10~--------13~--|
C||--10~--------11~--------15~--| x2
G||-----------------------------|
C||-----------------------------|


Guitar 2:
D||--------------------------------------------|
A||--------------------------------------------|
F||--9~---/12~------12~---/14~------14~---\9~--|
C||--x----/x--------x-----/x--------x-----\x---| x2
G||--7~---/10~------10~---/12~------12~---\7~--|
C||--------------------------------------------|



[Breakdown]
Guitar 1 (Tremelo Picking):
D||---------------------------------------------------------------------|
A||-1313131313131313131313131313131313b14141414141414r1313131313131313--|
F||---------------------------------------------------------------------|
C||---------------------------------------------------------------------| x2
G||---------------------------------------------------------------------|
C||---------------------------------------------------------------------|



[Chorus / Outro]
Guitar 1:
D||-------16---15--------16-15------16-------------16-15--|
A||--16-------------16---------14--------13~--------------|
F||-------------------------------------------------------|
C||-------------------------------------------------------|
G||-------------------------------------------------------|
C||-------------------------------------------------------|


D||-------16---15--------16-15------16--------|
A||--16-------------16---------14--------13~--|
F||-------------------------------------------|
C||-------------------------------------------|
G||-------------------------------------------|
C||-------------------------------------------|


Guitar 1 (Dub - Tremelo Picking):
D||---------------------------------------------------------------------|
A||-1313131313131313131313131313131313b14141414141414r1313131313131313--|
F||---------------------------------------------------------------------|
C||---------------------------------------------------------------------| x2
G||---------------------------------------------------------------------|
C||---------------------------------------------------------------------|





*****************************
-Tablature Legend-

 h   hammer-on
 p   pull-off
 b   bend
 pb  pre-bend
 r   release bend
 ~   hold / vibrato
 .   palm mute
 /   slide up
 \   slide down
 *   pinch harmonic
 '   natural harmonic
 x   mute note
 T   tap

*****************************
Suggest correction
Give kudos to tab author, rate the tab!
1 2 3 4 5
comments
print report bad tab
guest
You may want to rate the tab now too:
select rating
Wanna post a correction for this tab? Suggest correction