Oops, an error
Loading. Please wait.

St Patrick Live tab

version 1
version 1

Whole song

Interactive

by PVRIS
11,228 views 42 this week
no commentswrite comment
1 2 3 4 5
x 15
add to favorites
×
Save as Personal and add changes to this tab that will be seen only by you. Learn more ›
×
You can save this tab as Personal to edit and correct it or add notes. All changes will be seen only by you. Learn more »
launch autoscroll
font size
0
reset
how to read this tab
guitar tuner
edit
Autoscroll
slow
fast
+/-
esc
set tempo
stop
Author
Difficulty
This tab is for the "Empty Room" version of the song

You can watch me play it here: http://www.youtube.com/watch?v=RPjGEQ88GOU  so if i suck at explaining when to
play each part you can just watch and figure it out 

Capo first fret (in the video I'm in drop C# and so my capo is on the second fret, but for standard tuning 
put it on the first)Just in case anybody here is a beginner, the frets indicated in the tab start from after
the capo (so 12th fret means the 12th fret after the capo, otherwise known as the 14th fret)

Tone: I used lots of Delay and Reverb, and light distortion

Also as a side note, I have written most of this tab to accommodate those who wish to play the song with a 
single guitar, if you are a band then rhythm plays the Verse and Pre-Chorus for the whole song, except for 
during the solo where it is otherwise indicated in the tab.

Finally, this is my first tab and i did it as a request, so please do not tear me to shreds if it is awful :P

Verses 
e|--0----------------|
B|---------0----------|
G|------0--0--0-------|
D|------2-----2-------|
A|--3-----------------|
E|--------------------|

Pre-Choruses (from Oh Oh you give me something to talk about... until after she says shit in my head)
It's basically the same as the verse but play the third chord twice

e|--0----------|
B|--------0--0-|
G|-----0--0--0-|
D|-----2-------|
A|--3----------|
E|-------------|

Chorus (the whole bit that goes You're a miracle)
e|---------------------------------------------------------------------------|
B|---------------------------------------------------------------------------|
G|---9-9-9-12-12-12-11-11-11-------------------------------------------------|
D|---------------------------11-11-11-9-9-7-7--------------------------------|
A|---------------------------------------------------------------------------|
E|---------------------------------------------------------------------------|

Solo (rhythm guitar-this is played really slow, if you watch the video you can see me play it at the end of 
the solo, just do that all the way through while lead plays the solo)
e|---------7-----3-----------7-----3----------7-----3----------7-----3-------|
B|--5------------------5-----------------5---------------5-------------------|
G|---------------------------------------------------------------------------|
D|---------------------------------------------------------------------------|
A|---------------------------------------------------------------------------|
E|---------------------------------------------------------------------------|

Solo (lead-it might help to watch the video here to see the timing)
e|--------------------------------7-----------------------------------------------------------------------|
B|----12-12-12-12-10-7--------------7-8---------12-12-12-12-10-7---------14----14----14----14----14----14-|
G|--------------------------------------------------------------------15----15----15----15----15----15----|
D|--------------------------------------------------------------------------------------------------------|
A|--------------------------------------------------------------------------------------------------------|
E|--------------------------------------------------------------------------------------------------------|

Outro (From I still wait...) is the same notes as the rhythm guitar plays during the solo

            
            
Suggest correction
Creating personal tab
Creating personal tab
You can edit any tab online and save it as your Personal.

You can edit, replace or remove any tab part or add personal notes – all changes will be seen only by you.

Personal tabs can be accessed anytime from any device, even offline.
Learn more »
comments
print report bad tab
guest
You may want to rate the tab now too:
select rating
Wanna post a correction for this tab? Suggest correction