Oops, an error
Loading. Please wait.

St Patrick Acoustic tab

version 4
version 4

Whole song

Interactive

by PVRIS
362 views 24 this week
no commentswrite comment
1 2 3 4 5
3 more votes to show rating
add to favorites
×
Save as Personal and add changes to this tab that will be seen only by you. Learn more ›
×
You can save this tab as Personal to edit and correct it or add notes. All changes will be seen only by you. Learn more »
launch autoscroll
font size
0
reset
how to read this tab
guitar tuner
edit
Autoscroll
slow
fast
+/-
esc
set tempo
stop
About this tab version
St. Patrick acoustic version based on their live performances. Not really sure about chords but they are pretty close to what Alex plays. Was this info helpful? Yes No
PVRIS - St. Patrick (Acoustic) based on their live acoustic performance @ BalconyTV:
https://www.youtube.com/watch?v=592DPb5__bM

[Chords]
F#m: xx4200
G#: 4476xx
C#: 7-7-11-9-x-x

[Verse]

D|---------------------------------------------------------------|
A|----7----------------------------------------------------------|
F|-------------2--------6--------2-------------------------------|
C|---------------------------------------------------------------|
G|----5----------------------------------------------------------|x2
C|-------------4--------7--------4-------------------------------|

[Pre-Chorus]

D|------------5--------------------------------------------------|
A|----7-------------9--------5-------5---------------------------|
F|-----------------------------------------6---------------------|
C|---------------------------------------------------------------|
G|----5----5-----5-----------------------------------------------|x3
C|---------------------------4----4-----4------------------------|

"I know it's chemicals..." 

D|---------------------------------------------------------------|
A|------------10-----9----5-------5------------------------------|
F|----9---------------------------------6------------------------|
C|---------------------------------------------------------------|
G|---------------------------------------------------------------|
C|----7----7------7-------4----4-----4---------------------------|

"Cause I think you're a saint..." 

[Chorus 1]

D|---------------------------------------------------------------|
A|----7-----7----7--2-----2----2--5-----5----5--5----5----5------|
F|---------------------------------------------------------------|
C|---------------------------------------------------------------|
G|----5--5----5-----0--0----0------------------------------------|x2
C|--------------------------------4--4----4-----4--4----4--------|

"I said ooh..."

F#m G#           C#   G# 
    You're a miracle
F#m G#           C#         G#
    You're a miracle, a miracle

[Verse]

D|---------------------------------------------------------------|
A|----7----------------------------------------------------------|
F|-------------2--------6--------2-------------------------------|
C|---------------------------------------------------------------|
G|----5----------------------------------------------------------|x2
C|-------------4--------7--------4-------------------------------|

[Pre-Chorus]

D|------------5--------------------------------------------------|
A|----7-------------9--------5-------5---------------------------|
F|-----------------------------------------6---------------------|
C|---------------------------------------------------------------|
G|----5----5-----5-----------------------------------------------|x3
C|---------------------------4----4-----4------------------------|

"Take in your chemicals..." 

D|---------------------------------------------------------------|
A|------------10-----9----5-------5------------------------------|
F|----9---------------------------------6------------------------|
C|---------------------------------------------------------------|
G|---------------------------------------------------------------|
C|----7----7------7-------4----4-----4---------------------------|

"Cause you're a glimpse of bliss..." 

[Chorus 2]

D|---------------------------------------------------------------|
A|----7-----7----7--2-----2----2--5-----5----5--5----5----5------|
F|---------------------------------------------------------------|
C|---------------------------------------------------------------|
G|----5--5----5-----0--0----0------------------------------------|x2
C|--------------------------------4--4----4-----4--4----4--------|

"I said ooh..."

F#m G#           C#   G# 
    You're a miracle
F#m G#           C#         G#
    You're a miracle, a miracle

           F#m
    I said ooh, ooohh
  G#                         C#
    You give me something to talk about
                 G#
    Something to talk about
           F#m     G#
    I said ooh, ooohh
                             C#
    You give me something to think about 
                   G#
    That's not the shit in my head

[Bridge]

D|---------------------------------------------------------------|
A|----7----14----10-------7----14----10--------------------------|
F|---------------------------------------------------------------|
C|---------------------------------------------------------------|
G|----5----12----9--------5----12----9---------------------------|x2
C|---------------------------------------------------------------|

[Chorus 3]

F#m G# C# G# x2 

           F#m
    I said ooh, ooohh
  G#                         C#
    You give me something to talk about
                 G#
    Something to talk about
           F#m     G#
    I said ooh, ooohh
                             C#
    You give me something to think about 
                   G#
    That's not the shit in my head
F#m G#           C#   G# 
    You're a miracle
F#m G#           C#         G#
    You're a miracle, a miracle

[Outro]

D|---------------------------------------------------------------|
A|----7----14----10-------7----14----10--------------------------|
F|---------------------------------------------------------------|
C|---------------------------------------------------------------|
G|----5----12----9--------5----12----9---------------------------|
C|---------------------------------------------------------------|
Suggest correction
Creating personal tab
Creating personal tab
You can edit any tab online and save it as your Personal.

You can edit, replace or remove any tab part or add personal notes – all changes will be seen only by you.

Personal tabs can be accessed anytime from any device, even offline.
Learn more »
Give kudos to tab author, rate the tab!
1 2 3 4 5
comments
print report bad tab
guest
You may want to rate the tab now too:
select rating
Wanna post a correction for this tab? Suggest correction