Oops, an error
Loading. Please wait.

The Heartless tab

by PVRIS
943 views 3 this week
1 commentread comment
1 2 3 4 5
1 last vote to show rating
add to favorites
×
Save as Personal and add changes to this tab that will be seen only by you. Learn more ›
×
You can save this tab as Personal to edit and correct it or add notes. All changes will be seen only by you. Learn more »
launch autoscroll
font size
0
reset
how to read this tab
guitar tuner
edit
Autoscroll
slow
fast
+/-
esc
set tempo
stop
-------------------------------------------------------------------------------
                             The Heartless - PVRIS
-------------------------------------------------------------------------------
Tabbed by: CJC
E-mail: cindi.susi@yahoo.com

Tuning: Drop C#

This is how I play the rhythm guitar part, so it may not be 100% how PVRIS play it, but it goes well when 
you play it with the recording.

Intro

D#|-------------------------------------------------------------------------|
A#|-------------------------------------------------------------------------|
F#|-------------------------------------------------------------------------|
C#|-5-5-5-5-5-5-5-5-5-5-5-5-5-5-5-5-5-5-5-5-5-5-5-5-3-3-3-3-3-3-3-3-1-1-1-1-|
G#|-5-5-5-5-5-5-5-5-5-5-5-5-5-5-5-5-5-5-5-5-5-5-5-5-3-3-3-3-3-3-3-3-1-1-1-1-|
C#|-5-5-5-5-5-5-5-5-5-5-5-5-5-5-5-5-5-5-5-5-5-5-5-5-3-3-3-3-3-3-3-3-1-1-1-1-|\
                                                                             x2
D#|-------------------------------------------------------------------------|/
A#|-------------------------------------------------------------------------|
F#|-------------------------------------------------------------------------| 
C#|-1-1-1-1-1-1-1-1-1-1-1-1-3-3-3-3-3-3-3-3-7-7-7-7-3-3-3-3-----------------|
G#|-1-1-1-1-1-1-1-1-1-1-1-1-1-1-1-1-1-1-1-1-5-5-5-5-3-3-3-3-----------------|
C#|-1-1-1-1-1-1-1-1-1-1-1-1-------------------------3-3-3-3-----------------|

First Verse - All bass, don't play.

Pre-Chorus ("I can feel them pull me under...")

D#|-------------------------------------------------------------------------|
A#|-------------------------------------------------------------------------|
F#|-------------------------------------------------------------------------|
C#|-5-5-5-5-5-5-5-5-3-3-3-3-3-3-3-3-1-1-1-1-1-1-1-1-0-0-0-0-0-0-0-0-1~----0-|
G#|-5-5-5-5-5-5-5-5-3-3-3-3-3-3-3-3-1-1-1-1-1-1-1-1-0-0-0-0-0-0-0-0-1~----0-|
C#|-5-5-5-5-5-5-5-5-3-3-3-3-3-3-3-3-1-1-1-1-1-1-1-1-0-0-0-0-0-0-0-0-1~----0-|
    x x x x x x x x x x x x x x x x x x x x x x x x x x x x x x x x
D#|-------------------------------------------------------------------------|
A#|-------------------------------------------------------------------------|
F#|-------------------------------------------------------------------------|
C#|-3-3-3-3-3-3-3-3---------------------------------------------------------|
G#|-3-3-3-3-3-3-3-3---------------------------------------------------------|
C#|-3-3-3-3-3-3-3-3---------------------------------------------------------|
   x x x x x x x x

Chorus ("They pull me under every night...")

D#|-------------------------------------------------------------------------|
A#|-------------------------------------------------------------------------|
F#|-------------------------------------------------------------------------|
C#|-5-5-5-5-5-5-5-5-5-5-5-5-5-5-5-5-5-5-5-5-5-5-5-5-3-3-3-3-3-3-3-3-1-1-1-1-|
G#|-5-5-5-5-5-5-5-5-5-5-5-5-5-5-5-5-5-5-5-5-5-5-5-5-3-3-3-3-3-3-3-3-1-1-1-1-|
C#|-5-5-5-5-5-5-5-5-5-5-5-5-5-5-5-5-5-5-5-5-5-5-5-5-3-3-3-3-3-3-3-3-1-1-1-1-|

D#|-------------------------------------------------------------------------|
A#|-------------------------------------------------------------------------|
F#|-------------------------------------------------------------------------|
C#|-1-1-1-1-1-1-1-1-1-1-1-3-5-5-5-5-5-5-5-5-5-5-3-3-5-5-5-5-5-5-5-5-5-5-5-5-|
G#|-1-1-1-1-1-1-1-1-1-1-1-1-3-3-3-3-3-3-3-3-3-3-3-3-5-5-5-5-5-5-5-5-5-5-5-5-|
C#|-1-1-1-1-1-1-1-1-1-1-1-----------------------3-3-5-5-5-5-5-5-5-5-5-5-5-5-|

D#|-------------------------------------------------------------------------|
A#|-------------------------------------------------------------------------|
F#|-------------------------------------------------------------------------|
C#|-5-5-5-5-5-5-5-5-5-5-5-5-3-3-3-3-3-3-3-3-1-1-1-1-1-1-1-1-1-1-1-1-1-1-1---|
G#|-5-5-5-5-5-5-5-5-5-5-5-5-3-3-3-3-3-3-3-3-1-1-1-1-1-1-1-1-1-1-1-1-1-1-1---|
C#|-5-5-5-5-5-5-5-5-5-5-5-5-3-3-3-3-3-3-3-3-1-1-1-1-1-1-1-1-1-1-1-1-1-1-1---|

D#|-------------------------------------------------------------------------|
A#|-------------------------------------------------------------------------|
F#|-------------------------------------------------------------------------|
C#|-5-5-5-5-5-5-3-3---------------------------------------------------------|
G#|-3-3-3-3-3-3-3-3---------------------------------------------------------|
C#|-------------3-3---------------------------------------------------------|

Part after chorus

D#|-------------------------------------------------------------------------|
A#|-------------------------------------------------------------------------|
F#|-------------------------------------------------------------------------|
C#|-5~-5~-5~-5-5-7-5-7-5-3~-3~-3~-3-3-5-3-5-3-5~-5~-5~-5-5-7-5-7-5-1~-1~-1~-|
G#|-5~-5~-5~-5-5-7-5-7-5-3~-3~-3~-3-3-5-3-5-3-5~-5~-5~-5-5-7-5-7-5-1~-1~-1~-|
C#|-5~-5~-5~-5-5-7-5-7-5-3~-3~-3~-3-3-5-3-5-3-5~-5~-5~-5-5-7-5-7-5-1~-1~-1~-|

D|-------------------------------------------------------------------------|
A|-------------------------------------------------------------------------|
F|-------------------------------------------------------------------------|
C|-1-1-3-1-3-1-------------------------------------------------------------|
G|-1-1-3-1-3-1-------------------------------------------------------------|
C|-1-1-3-1-3-1-------------------------------------------------------------|

Pre-Chorus ("I can feel them pull me under...")

D#|-------------------------------------------------------------------------|
A#|-------------------------------------------------------------------------|
F#|-------------------------------------------------------------------------|
C#|-5-5-5-5-8-3-3-3-3-5-1-1-1-1-1-1-1-1-5-5-5-5-5-5-1-1-1-1-1-1-1-1-1-1-1-1-|
G#|-5-5-5-5-8-3-3-3-3-5-1-1-1-1-1-1-1-1-3-3-3-3-3-3-1-1-1-1-1-1-1-1-1-1-1-1-|
C#|-5-5-5-5-8-3-3-3-3-5-1-1-1-1-1-1-1-1-------------1-1-1-1-1-1-1-1-1-1-1-1-|

D#|-------------------------------------------------------------------------|
A#|-------------------------------------------------------------------------|
F#|-------------------------------------------------------------------------|
C#|-1-1-1-1-3-3-3-3-3-3-3-3-5-5-5-5-5-5-5-5---------------------------------|
G#|-1-1-1-1-3-3-3-3-3-3-3-3-5-5-5-5-5-5-5-5---------------------------------|
C#|-1-1-1-1-3-3-3-3-3-3-3-3-5-5-5-5-5-5-5-5---------------------------------|
                            x x x x x x x x 

Chorus ("They pull me under every night...")

D#|-------------------------------------------------------------------------|
A#|-------------------------------------------------------------------------|
F#|-------------------------------------------------------------------------|
C#|-5-5-5-5-5-5-5-5-5-5-5-5-5-5-5-5-5-5-5-5-5-5-5-5-3-3-3-3-3-3-3-3-1-1-1-1-|
G#|-5-5-5-5-5-5-5-5-5-5-5-5-5-5-5-5-5-5-5-5-5-5-5-5-3-3-3-3-3-3-3-3-1-1-1-1-|
C#|-5-5-5-5-5-5-5-5-5-5-5-5-5-5-5-5-5-5-5-5-5-5-5-5-3-3-3-3-3-3-3-3-1-1-1-1-|

D#|-------------------------------------------------------------------------|
A#|-------------------------------------------------------------------------|
F#|-------------------------------------------------------------------------|
C#|-1-1-1-1-1-1-1-1-1-1-1-5-5-5-5-5-5-5-5-5-5-5-5-3-3-3-5-5-5-5-5-5-5-5-5-5-|
G#|-1-1-1-1-1-1-1-1-1-1-1-3-3-3-3-3-3-3-3-3-3-3-3-3-3-3-5-5-5-5-5-5-5-5-5-5-|
C#|-1-1-1-1-1-1-1-1-1-1-1-------------------------3-3-3-5-5-5-5-5-5-5-5-5-5-|

D#|-------------------------------------------------------------------------|
A#|-------------------------------------------------------------------------|
F#|-------------------------------------------------------------------------|
C#|-5-5-5-5-5-5-5-5-5-5-5-5-5-5-3-3-3-3-3-3-3-3-1-1-1-1-1-1-1-1-1-1-1-1-1-1-|
G#|-5-5-5-5-5-5-5-5-5-5-5-5-5-5-3-3-3-3-3-3-3-3-1-1-1-1-1-1-1-1-1-1-1-1-1-1-|
C#|-5-5-5-5-5-5-5-5-5-5-5-5-5-5-3-3-3-3-3-3-3-3-1-1-1-1-1-1-1-1-1-1-1-1-1-1-|

D#|-------------------------------------------------------------------------|
A#|-------------------------------------------------------------------------|
F#|-------------------------------------------------------------------------|
C#|-1-5-5-5-5-5-5-5-5-5-5-3-3-----------------------------------------------|
G#|-1-3-3-3-3-3-3-3-3-3-3-3-3-----------------------------------------------|
C#|-1---------------------3-3-----------------------------------------------|

Part after chorus

D#|-------------------------------------------------------------------------|
A#|-------------------------------------------------------------------------|
F#|-------------------------------------------------------------------------|
C#|-5~-3~-8-8-8-8~-5-5-5-5-5-3~-8-8-8-5~------------------------------------|
G#|-5~-3~-6-6-6-6~-5-5-5-5-5-3~-6-6-6-3~------------------------------------|
C#|-5~-3~----------5-5-5-5-5-3~---------------------------------------------|

Bridge (don't play until after she's sung "Keep your eyes off of the door, and I won't let them pull you 
under." once)

D#|-------------------------------------------------------------------------|
A#|-------------------------------------------------------------------------|
F#|-------------------------------------------------------------------------|
C#|-5-5-5-5-8-8-8-8-8-8-8-8-8-8-8-8-8-8-8-8-8-8-8-8-8-8-8-8-8-8-8-8--8\-----|
G#|-5-5-5-5-8-8-8-8-6-6-6-6-6-6-6-6-6-6-6-6-6-6-6-6-6-6-6-6-6-6-6-6--6\-----|
C#|-5-5-5-5-8-8-8-8---------------------------------------------------------|

D#|-------------------------------------------------------------------------|
A#|-------------------------------------------------------------------------|
F#|-------------------------------------------------------------------------|
C#|-5-5-5-5--5/8-8-8-8-8-8-8-8-8-8-8-8-8-8-8-8-8-8-8-8-8-8-8-8-8-8-8-8-8-8-8|
G#|-5-5-5-5--5/8-8-8-8-8-6-6-6-6-6-6-6-6-6-6-6-6-6-6-6-6-6-6-6-6-6-6-6-6-6-6|
C#|-5-5-5-5--5/8-8-8-8-8----------------------------------------------------|

D#|-------------------------------------------------------------------------|
A#|-------------------------------------------------------------------------|
F#|-------------------------------------------------------------------------|
C#|-5-5-5-8-8-8-8-8-8-8-8-8-8-8-8-8-8-8-8-8-8-8-8-5-5-5-5-5-5-5-5-5---------|
G#|-5-5-5-8-8-8-8-6-6-6-6-6-6-6-6-6-6-6-6-6-6-6-6-3-3-3-3-3-3-3-3-3---------|
C#|-5-5-5-8-8-8-8-----------------------------------------------------------|

Chorus/Outro ("They pull me under every night...")

D#|-------------------------------------------------------------------------|
A#|-------------------------------------------------------------------------|
F#|-------------------------------------------------------------------------|
C#|-5-5-5-5-5-5-5-5-5-5-5-5-5-5-5-5-5-5-5-5-5-5-5-5-3-3-3-3-3-3-3-3-1-1-1-1-|
G#|-5-5-5-5-5-5-5-5-5-5-5-5-5-5-5-5-5-5-5-5-5-5-5-5-3-3-3-3-3-3-3-3-1-1-1-1-|
C#|-5-5-5-5-5-5-5-5-5-5-5-5-5-5-5-5-5-5-5-5-5-5-5-5-3-3-3-3-3-3-3-3-1-1-1-1-|

D#|-------------------------------------------------------------------------|
A#|-------------------------------------------------------------------------|
F#|-------------------------------------------------------------------------|
C#|-1-1-1-1-1-1-1-1-1-1-1-5-5-5-5-5-5-5-5-5-5-5-5-3-3-3-5-5-5-5-5-5-5-5-5-5-|
G#|-1-1-1-1-1-1-1-1-1-1-1-3-3-3-3-3-3-3-3-3-3-3-3-3-3-3-5-5-5-5-5-5-5-5-5-5-|
C#|-1-1-1-1-1-1-1-1-1-1-1-------------------------3-3-3-5-5-5-5-5-5-5-5-5-5-|

D#|-------------------------------------------------------------------------|
A#|-------------------------------------------------------------------------|
F#|-------------------------------------------------------------------------|
C#|-5-5-5-5-5-5-5-5-5-5-5-5-5-5-3-3-3-3-3-3-3-3-1-1-1-1-1-1-1-1-1-1-1-1-1-1-|
G#|-5-5-5-5-5-5-5-5-5-5-5-5-5-5-3-3-3-3-3-3-3-3-1-1-1-1-1-1-1-1-1-1-1-1-1-1-|
C#|-5-5-5-5-5-5-5-5-5-5-5-5-5-5-3-3-3-3-3-3-3-3-1-1-1-1-1-1-1-1-1-1-1-1-1-1-|

D#|-------------------------------------------------------------------------|
A#|-------------------------------------------------------------------------|
F#|-------------------------------------------------------------------------|
C#|-1-5-5-5-5-5-5-5-5-5-5-3-3-5-5-5-5-5-3-----------------------------------|
G#|-1-3-3-3-3-3-3-3-3-3-3-3-3-5-5-5-5-5-3-----------------------------------|
C#|-1---------------------3-3-5-5-5-5-5-3~----------------------------------|

************************************

| /   slide up
| \   slide down
| h   hammer-on
| p   pull-off
| ~   vibrato
| +   harmonic
| x   Mute note
| b   Bend
| pb  Pre-bend
| br  Bend release
| pbr Pre-bend release
| brb Bend release bend

************************************

            
            
Suggest correction
Creating personal tab
Creating personal tab
You can edit any tab online and save it as your Personal.

You can edit, replace or remove any tab part or add personal notes – all changes will be seen only by you.

Personal tabs can be accessed anytime from any device, even offline.
Learn more »
Give kudos to tab author, rate the tab!
1 2 3 4 5
comments
print report bad tab
1 comment total.
+1 reply
steven.dipietro 152 Mar 30, 2016 04:06 AM

You are my savior! Theres a Capo on the third fret for the tapping part

guest
You may want to rate the tab now too:
select rating
Wanna post a correction for this tab? Suggest correction