Oops, an error
Loading. Please wait.

White Noise intro tab

by PVRIS
811 views 1 this week
no commentswrite comment
1 2 3 4 5
x 3
add to favorites
×
Save as Personal and add changes to this tab that will be seen only by you. Learn more ›
×
You can save this tab as Personal to edit and correct it or add notes. All changes will be seen only by you. Learn more »
launch autoscroll
font size
0
reset
how to read this tab
guitar tuner
edit
Autoscroll
slow
fast
+/-
esc
set tempo
stop
Author
Difficulty
Standard Tuning for easier purposes, even though pvris play drop c live.

The first part is the intro for their tour with Bring Me The Horizon, i will make this
two parts for the
intro that they currently are doing with Fall Out Boy.



(note that x means how many times you play a note (13x17 means play the note on 13th
fret, 17 times,same goes
for 10x8, and the others.)

   Alex's part(Rhythm):
e|--4------------------8---11-9--8-----8----11-9--8-------------|
B|--6-----4---4/6------9---------9----------------9-------------|
G|--5-----------------10--------10---10---=------10-------------| x2
D|--------------------------------------------------------------|
A|--------------------------------------------------------------|
E|--------------------------------------------------------------|


    Lyndsey's part(Lead)(This involves tapping): start playing this the 2nd time rhythm
comes in

e|---------------------------------------------------------------------------|
B|--------------------11p6--11p6--9p6--9p6-----------------------------------|
G|---10p5--8p5--10p5-----------------------8/10------------------------------| x8
D|---------------------------------------------------------------------------|
A|---------------------------------------------------------------------------|
E|---------------------------------------------------------------------------|


 Lead with lots of reverb and a little distortion:
e|---------------------------------------------------------------------------|
B|---------------------------------------------------------------------------|
G|--8/10-10-10--10/13-13-13-13--13/17-17-17-17-17-17b18-18-18-18\8-----------|
D|---------------------------------------------------------------------------|
A|---------------------------------------------------------------------------|
E|---------------------------------------------------------------------------|

e|------------------------------------------------------------------------------------------------------------
B|------------------------------------------------------------------------------------------------------------
G|-8/10-10-10-10/13-13-13-13-13/17-17-17-17-17-17b18-18-18-18-17x8-15-15-15-15-15/17-15--15-17-15-15\13-13x17-
D|-------------------------------------------------------------------------------------18--------------------
A|-----------------------------------------------------------------------------------------------------------
E|------------------------------------------------------------------------------------------------------------

 End of Bmth tour intro, heres current intro for fall out boy tour:

   Alex's part(Rhythm):
e|--4------------------8---11-9--8-----8----11-9--8-------------|
B|--6-----4---4/6------9---------9----------------9-------------|
G|--5-----------------10--------10---10---=------10-------------|   play this twice
D|--------------------------------------------------------------|
A|--------------------------------------------------------------|
E|--------------------------------------------------------------|


    Lyndsey's part(Lead)(This involves tapping): play this 2nd time around the rhythm.

e|---------------------------------------------------------------------------|
B|--------------------11p6--11p6--9p6--9p6-----------------------------------|
G|---10p5--8p5--10p5-----------------------8/10------------------------------| x8
D|---------------------------------------------------------------------------|
A|---------------------------------------------------------------------------|
E|---------------------------------------------------------------------------|

 Lead with lots of reverb and a little distortion:
e|---------------------------------------------------------------------------|
B|---------------------------------------------------------------------------|
G|-10x8--15-15-15-15-13-13-13-13-12x10-13x7----------------------------------|
D|---------------------------------------------------------------------------|
A|---------------------------------------------------------------------------|
E|---------------------------------------------------------------------------|

e|---------------------------------------------------------------------------|
B|---------------------------------------------------------------------------|
G|-10x8--15-15-15-15-13-13-13-13-12x10-13x7--15x16--12x12-13-13-13-13-10x*---|
D|---------------------------------------------------------------------------|
A|---------------------------------------------------------------------------|
E|---------------------------------------------------------------------------|
 10x*= play note until the intro ends.


 End of wintour version of pvris' white noise intro


Let me know if you have any suggestions!

************************************


| h   Hammer-on
| p   Pull-off
| r   Release
| >   Accented note
| t   Tapping
| b   Bend
| /   Slide Up
| \   Slide Down
************************************

            
            
Suggest correction
Creating personal tab
Creating personal tab
You can edit any tab online and save it as your Personal.

You can edit, replace or remove any tab part or add personal notes – all changes will be seen only by you.

Personal tabs can be accessed anytime from any device, even offline.
Learn more »
Give kudos to tab author, rate the tab!
1 2 3 4 5
comments
print report bad tab
guest
You may want to rate the tab now too:
select rating
Wanna post a correction for this tab? Suggest correction