Oops, an error
Loading. Please wait.

1994 tab

3,178 views 21 this week
1 commentread comment
1 2 3 4 5
x 5
add to favorites
×
Save as Personal and add changes to this tab that will be seen only by you. Learn more ›
×
You can save this tab as Personal to edit and correct it or add notes. All changes will be seen only by you. Learn more »
launch autoscroll
font size
0
reset
how to read this tab
guitar tuner
edit
Autoscroll
slow
fast
+/-
esc
set tempo
stop
[Intro]

e |--------------------------------------------|
B |--------------------------------------------|
G#|-----5-------5-----------5----------5-------|
E |---5---5---7---7------10---10-----7---7-----|
B |-5-------7-------7/10---------10\7----------|
E |--------------------------------------------|

e |--------------------------------------------|
B |--------------------------------------------|
G#|-----5-------5-----------5------------------|
E |---5---5---7---7------10---10---------------|
B |-5-------7-------7/10---------10\7----------|
E |--------------------------------------------|

e |-5-5-5-5-7-7-7-7-10-10-10-10-7-7-7-7--------|
B |-5-5-5-5-7-7-7-7-10-10-10-10-7-7-7-7--------|
G#|-5-5-5-5-7-7-7-7-10-10-10-10-7-7-7-7--------|    
E |-5-5-5-5-7-7-7-7-10-10-10-10-7-7-7-7--------|    (2x)
B |-5-5-5-5-7-7-7-7-10-10-10-10-7-7-7-7--------|
E |-5-5-5-5-7-7-7-7-10-10-10-10-7-7-7-7--------|


[Verse 1]

e |-5-5-5-5-7-7-7-7-10-10-10-10-7-7-7-7--------|
B |-5-5-5-5-7-7-7-7-10-10-10-10-7-7-7-7--------|
G#|-5-5-5-5-7-7-7-7-10-10-10-10-7-7-7-7--------|    
E |-5-5-5-5-7-7-7-7-10-10-10-10-7-7-7-7--------|    (3x)
B |-5-5-5-5-7-7-7-7-10-10-10-10-7-7-7-7--------|
E |-5-5-5-5-7-7-7-7-10-10-10-10-7-7-7-7--------|

e |-5-5-5-5-7-7-7-7----------------------------|
B |-5-5-5-5-7-7-7-7----------------------------|
G#|-5-5-5-5-7-7-7-7----------------------------|    
E |-5-5-5-5-7-7-7-7-9-9-9-9-9-9-9-9------------|    
B |-5-5-5-5-7-7-7-7-7-7-7-7-7-7-7-7------------|
E |-5-5-5-5-7-7-7-7-7-7-7-7-7-7-7-7------------|


[Chorus]

e |-5-5-5-5-7-7-7-7-10-10-10-10-10-10-10-10----|  1st/3rd/4th Time
B |-5-5-5-5-7-7-7-7-10-10-10-10-10-10-10-10----|
G#|-5-5-5-5-7-7-7-7-10-10-10-10-10-10-10-10----|    
E |-5-5-5-5-7-7-7-7-10-10-10-10-10-10-10-10----|    
B |-5-5-5-5-7-7-7-7-10-10-10-10-10-10-10-10----|
E |-5-5-5-5-7-7-7-7-10-10-10-10-10-10-10-10----|

e |-5-5-5-5-7-7-7-7-10-10-10-10-10-10-7-7------| 2nd Time Only
B |-5-5-5-5-7-7-7-7-10-10-10-10-10-10-7-7------|
G#|-5-5-5-5-7-7-7-7-10-10-10-10-10-10-7-7------|    
E |-5-5-5-5-7-7-7-7-10-10-10-10-10-10-7-7------|    
B |-5-5-5-5-7-7-7-7-10-10-10-10-10-10-7-7------|
E |-5-5-5-5-7-7-7-7-10-10-10-10-10-10-7-7------|


[Verse 2]

e |-5-5-5-5-7-7-7-7-10-10-10-10-7-7-7-7--------|
B |-5-5-5-5-7-7-7-7-10-10-10-10-7-7-7-7--------|
G#|-5-5-5-5-7-7-7-7-10-10-10-10-7-7-7-7--------|    
E |-5-5-5-5-7-7-7-7-10-10-10-10-7-7-7-7--------|    (3x)
B |-5-5-5-5-7-7-7-7-10-10-10-10-7-7-7-7--------|
E |-5-5-5-5-7-7-7-7-10-10-10-10-7-7-7-7--------|

e |-5-5-5-5-7-7-7-7----------------------------|
B |-5-5-5-5-7-7-7-7----------------------------|
G#|-5-5-5-5-7-7-7-7----------------------------|    
E |-5-5-5-5-7-7-7-7-9-9-9-9-9-9-9-9------------|    
B |-5-5-5-5-7-7-7-7-7-7-7-7-7-7-7-7------------|
E |-5-5-5-5-7-7-7-7-7-7-7-7-7-7-7-7------------|


[Chorus]

e |-5-5-5-5-7-7-7-7-10-10-10-10-10-10-10-10----|  1st/3rd/4th Time
B |-5-5-5-5-7-7-7-7-10-10-10-10-10-10-10-10----|
G#|-5-5-5-5-7-7-7-7-10-10-10-10-10-10-10-10----|    
E |-5-5-5-5-7-7-7-7-10-10-10-10-10-10-10-10----|    
B |-5-5-5-5-7-7-7-7-10-10-10-10-10-10-10-10----|
E |-5-5-5-5-7-7-7-7-10-10-10-10-10-10-10-10----|

e |-5-5-5-5-7-7-7-7-10-10-10-10-10-10-7-7------| 2nd Time Only
B |-5-5-5-5-7-7-7-7-10-10-10-10-10-10-7-7------|
G#|-5-5-5-5-7-7-7-7-10-10-10-10-10-10-7-7------|    
E |-5-5-5-5-7-7-7-7-10-10-10-10-10-10-7-7------|    
B |-5-5-5-5-7-7-7-7-10-10-10-10-10-10-7-7------|
E |-5-5-5-5-7-7-7-7-10-10-10-10-10-10-7-7------|


[Solo]

e |-5-5------------------------------------5-5------------------------------------|
B |-5-5---12b-12-10----------10-12-10-5----5-5----12b-12-10-12-12/17\12-12-12-----|
G#|-5-5-------------12-10-12---------------5-5------------------------------------|
E |-5-5------------------------------------5-5------------------------------------|
B |-5-5------------------------------------5-5------------------------------------|
E |-5-5------------------------------------5-5------------------------------------|

e |-5-5----------------------------------------10-10-10-10-10-10-10-10------------|
B |-5-5---12b-12-10----------10-12p10h12-5-----10-10-10-10-10-10-10-10------------|
G#|-5-5-------------12-10-12-------------------10-10-10-10-10-10-10-10------------|
E |-5-5----------------------------------------10-10-10-10-10-10-10-10------------|
B |-5-5----------------------------------------10-10-10-10-10-10-10-10------------|
E |-5-5----------------------------------------10-10-10-10-10-10-10-10------------|

e |-5-5---------------------------------------------------------------------------|
B |-5-5---12b-12-10----------10-12p10h12-5----------------------------------------|
G#|-5-5-------------12-10-12------------------------------------------------------|
E |-5-5---------------------------------------------------------------------------|
B |-5-5---------------------------------------------------------------------------|
E |-5-5---------------------------------------------------------------------------|

e |-5-5---------------------------------------------------------------------------|
B |-5-5---12b-12-10-5-10h12h-14t-12h10h-5-10h12h-17t------------------------------|
G#|-5-5---------------------------------------------------------------------------|
E |-5-5---------------------------------------------------------------------------|
B |-5-5---------------------------------------------------------------------------|
E |-5-5---------------------------------------------------------------------------|

e |-5-5--------------------------------------10-10-10-10-10-10-10-10-10-10-10-10-10-10-10-10--------|
B |-5-5---12b-12-10----------10-12-10-5------10-10-10-10-10-10-10-10-10-10-10-10-10-10-10-10--------|
G#|-5-5-------------12-10-12-----------------10-10-10-10-10-10-10-10-10-10-10-10-10-10-10-10--------|
E |-5-5--------------------------------------10-10-10-10-10-10-10-10-10-10-10-10-10-10-10-10--------|
B |-5-5--------------------------------------10-10-10-10-10-10-10-10-10-10-10-10-10-10-10-10--------|
E |-5-5--------------------------------------10-10-10-10-10-10-10-10-10-10-10-10-10-10-10-10--------|


[Outro]

e |--5---7---10-------------|
B |--5---7---10-------------|
G#|--5---7---10-------------|
E |--5---7---10-------------|   (4x)
B |--5---7---10-------------|
E |--5---7---10-------------|

e |-------------------------|
B |-10-5-----12-10-----10-5-|
G#|-------------------------|
E |-------------------------|
B |-------------------------|
E |-------------------------|


************************************

| h   Hammer-on
| p   Pull-off
| t   Tapping
| b   Bend
| /   Slide up
| \   Slide down

************************************

            
            
Suggest correction
Creating personal tab
Creating personal tab
You can edit any tab online and save it as your Personal.

You can edit, replace or remove any tab part or add personal notes – all changes will be seen only by you.

Personal tabs can be accessed anytime from any device, even offline.
Learn more »
comments
print report bad tab
1 comment total.
+1 reply
jackie-182 10 Apr 22, 2017 11:38 AM

should really point out that the tab is not relative to the capo!!

guest
You may want to rate the tab now too:
select rating
Wanna post a correction for this tab? Suggest correction