Oops, an error
Loading. Please wait.

C U Around Tab

version 1
version 1

Intro

  • I played around with it till it sounded right.

Whole song

  • Chords as well as tabs for alternate versions, lyr... Show more
205 views 36 this week
no commentswrite comment
1 2 3 4 5
2 more votes to show rating
add to favorites
launch autoscroll
font size
0
reset
how to read this tab
guitar tuner
Autoscroll
slow
fast
+/-
esc
set tempo
stop
Help us to improve Ultimate-Guitar.com Take our survey!
×
Author
Difficulty
About this tab version
I played around with it till it sounded right. Was this info helpful? Yes No
[Intro]
                 (C)
e|----------------0---|
B|--------1-1-----1---|
G|-------0-0------0---|    (x3)
D|----2-----------2---|
A|--3-------------3---|
E|-----------0-0------|


e|-----------------|
B|--------1-1------|
G|-------0-0-------|    
D|----2------------|
A|--3--------------|
E|-----------0-----|              
Suggest correction
Give kudos to tab author, rate the tab!
1 2 3 4 5
comments
print report bad tab
guest
You may want to rate the tab now too:
select rating
Wanna post a correction for this tab? Suggest correction