Oops, an error
Loading. Please wait.

C U Around Tab

version 1
version 1

Whole song

  • Chords as well as tabs for alternate versions, lyr... Show more
298 views 39 this week
no commentswrite comment
1 2 3 4 5
x 3
add to favorites
launch autoscroll
font size
0
reset
how to read this tab
guitar tuner
Autoscroll
slow
fast
+/-
esc
set tempo
stop
Help us to improve Ultimate-Guitar.com Take our survey!
×
Author
Difficulty
About this tab version
Chords as well as tabs for alternate versions, lyrics included, tabbed intro rather than just chords. Was this info helpful? Yes No
This one is pretty easy, just needed to be tabbed out rather than using just the chords to get the right vibe.

Intro:

e|-----------------0-|
B|------0h1p0------0-|
G|----0------------0-|
D|-----------------2-|
A|--3--------------3-|
E|-------------1-1---| x3

 
e|---------------|
B|------0h1p0----|
G|----0----------|
D|---------------|
A|--3----------3-|
E|-------------1-| x1

This is all based around an open C chord so just strum that if you can't get your head around this bit.



Verse: 

From "I'm looking forward to the day..."

e|-------------------------------------|
B|-------------------------------------|
G|-------------------------------------|
D|--5-5-5-5----------------------------|
A|--3-3-3-3--2-2-2-2--3-3-3-3--5-5-5-5-|
E|-----------0-0-0-0--1-1-1-1--3-3-3-3-| x4

This bit can be played as two-finger powerchords or as regular chords -
the chords are C, Em, F, G.



Chorus:


e|--------------------------|
B|--------------------------|
G|--------------------------|
D|--------5-5--7-7----------|
A|--3-3---3-3--5-5--5-5-5-5-|
E|--1-1-------------3-3-2-2-| x2

Regular chords: F, C, D, G

This bit is "but today was not the day
so i just walked by
I didn't stop to ask how you were doing
I barely even said "Hi"


e|---------------------|
B|---------------------|
G|---------------------|
D|-------5-5-5---------|
A|--3-3--3-3-3--3-3--5-|
E|--1-1---------1-1--3-| x1

Regular chords: F, C, F, G

And from here it's "But I noticed you looked down
I hope you're okay
I'll see you around."

And then it goes back into the intro. 
Suggest correction
Give kudos to tab author, rate the tab!
1 2 3 4 5
comments
print report bad tab
guest
You may want to rate the tab now too:
select rating
Wanna post a correction for this tab? Suggest correction