Oops, an error
Loading. Please wait.

House In Virginia tab

769 views 9 this week
4 commentsread comments
1 2 3 4 5
1 last vote to show rating
add to favorites
×
Save as Personal and add changes to this tab that will be seen only by you. Learn more ›
×
You can save this tab as Personal to edit and correct it or add notes. All changes will be seen only by you. Learn more »
launch autoscroll
font size
0
reset
how to read this tab
guitar tuner
edit
Autoscroll
slow
fast
+/-
esc
set tempo
stop
About this tab version
Couple of twiddly bits wrong...but largely correct. Was this info helpful? Yes No
@dan_grigg

[Intro]

E |----------------------------------------------------------------------|
B |-------2h4-----------2h4---4p2h4~-------2h4------------2h4---4p2~-----|
G#|-----0-----0~------0-----0------------0-----0~-------0-----0----------|
E |----------------------------------------------------------------------|
B |---0-----------0-------------------0-------------0--------------------|
E |-0-----------0-------------------0-------------0----------------------|


[Verse A - Palm Muted, not that strict, more of a theme]

E |-----------$-----------|
B |------2h4--$----4-4----|
G#|-----------$-----------| x4
E |--0-0-0--0-$-0--0-0----|
B |--0-0-0--0-$-0--0-0----|
E |--0-0-0--0-$-0--0-0----|

E |-----------$------[2nd time only]-----|
B |-----------$------[-------------]-----|
G#|-----------$------[--000--------]-----| x4
E |--2-2-2p0h2$-2-2--[--444--------]-----|
B |--2-2-2p0h2$-2-2--[-------------]-----|
E |--2-2-2p0h2$-2-2--[-------------]-----|

[Repeat Intro]

[Chorus A] 'cos I'm sick of...

E |------------------------------------|
B |------------------------------------|
G#|------------------------------------|
E |---5-5-5-5-5-5-5-5-3-3-3-3-3-3-3-3--|
B |---5-5-5-5-5-5-5-5-3-3-3-3-3-3-3-3--|
E |---5-5-5-5-5-5-5-5-3-3-3-3-3-3-3-3--|

[Intro Variant]
E |---------------------------------------------------------------------------|
B |------2h4---------2h4-4p2h4/7~------2h4----------2h4-4p2~------------------|
G#|-----0---0~------0---0-----------0---0~-------0---0------------------------|
E |---------------------------------------------------------------------------|
B |---0-----------0---------------0-------------0-----------------------------|
E |-0-----------0---------------0-------------0-------------------------------|

[Repeat Verse A and Intro]

[Chorus A2] Palm Muted, but less so on each repeat

                                v 4th repeat ends on this note
E |-----------------------------------|
B |-----------------------------------|
G#|-----------------------------------| x4
E |---5-5-5-5-5-5-5-5-3-3-3-3-3-3-4-4-|
B |---5-5-5-5-5-5-5-5-3-3-3-3-3-3-4-4-|
E |---5-5-5-5-5-5-5-5-3-3-3-3-3-3-4-4-|


[Verse B - Lightly Muted]
timing hints above...

     123 223 323 423      123 223 32 roll
E |------------------------------------------------|
B |-----------------------------------------$------|
G#|---00--00--00--00---x3--00--00--0------0-$------| x4
E |--000-000-000-000------000-000-00-0h2h4--$-4p2--|
B |--0---2---4---2--------0---2---4---------$----0-|
E |--x---x---x---x--------x---x---x----------------|

[Chorus B]

      1-2-3 2-2-3 3-2-3 4-2-3
E |----------------------------|
B |----------------------------|
G#|----------------------------| x4
E |---5-5-5-5-5-5-5-5-5-5-5-5--|
B |---5-5-5-5-5-5-5-5-5-5-5-5--|
E |---5-5-5-5-5-5-5-5-5-5-5-5--|

[Repeat Verse B + Chorus B]

[Outro - Distortion]

E |------------------------|
B |---10-10-10-10h12-12----|
G#|---10-10-10-10h12-12----| x4
E |---10-10-10-10h12-12----| (no h12 on last repeat)
B |---0--0--0--0--0--0-----|
E |---0--0--0--0--0--0-----|


               v-Whammy-Detune/Chorus for high notes
E |-------------------------------------------------------------------------|
B |------------10~---------10h12p10--------10-10-10--------12p10------------|
G#|------------10~---------10h12p10--------10-10-10-------------12--10------| 
E |------------10~---------10h12p10--------10-10-10--------------------12-10| 
B |---0--0--0------0--0--0----------0-0-0------------0-0-0------------------|
E |---0--0--0------0--0--0----------0-0-0------------0-0-0------------------|

E |-------------------------------------------------------------------------|
B |------------10~---------10h12-12--------10~------------------------------|
G#|------------10~---------10h12-12--------10~-------------5b~--------------| 
E |------------10~---------10h12-12--------10~-------------5b~--------------| 
B |---0--0--0------0--0--0----------0-0-0------------0-0-0------------------|
E |---0--0--0------0--0--0----------0-0-0------------0-0-0------------------|



************************************
| $   Brief Pause
| x   Dead note
| g   Grace note
| (n) Ghost note
| h   Hammer-on
| p   Pull-off
| r   Release
| >   Accented note
| t   Tapping
| b   Bend
| br  Bend release
| pb  Pre-bend
| pbr Pre-bend release
| /   Slide up
| \   Slide down
| ~   Vibrato
| s   Slap
| P   Pop
| PM  Palm mute
| TR  Trill
| N   Tremolo

************************************

            
            
Suggest correction
Creating personal tab
Creating personal tab
You can edit any tab online and save it as your Personal.

You can edit, replace or remove any tab part or add personal notes – all changes will be seen only by you.

Personal tabs can be accessed anytime from any device, even offline.
Learn more »
Give kudos to tab author, rate the tab!
1 2 3 4 5
comments
print report bad tab
4 comments total. Showing first comments.
0 reply
causticartistry 20 Apr 04, 2017 02:45 PM

Fantastic tab! You're right, the twiddly bits in Verse B are a bit off but it's such a flexible little section that it doesn't even matter, you nailed the main notes and that's really what I need the most.

0 reply
GoldAC 10 Jun 28, 2017 02:01 PM

THANK YOU! I could NOT figure this out

0 reply
dangrigg 183 Jun 28, 2017 02:05 PM

You're welcome - even if listening to PWR BTTM is now somewhat frowned upon...

guest
You may want to rate the tab now too:
select rating
Wanna post a correction for this tab? Suggest correction