Oops, an error
Loading. Please wait.

I Wanna Boi Ukulele Chords

187 views 18 this week
no commentswrite comment
1 2 3 4 5
1 last vote to show rating
add to favorites
launch autoscroll
font size
0
reset
transpose
0
reset
display chords
guitar tuner
Autoscroll
slow
fast
+/-
esc
set tempo
stop
Help us to improve Ultimate-Guitar.com Take our survey!
×
Author
     A|--------------------|--------------------|--3------------------|
     E|--1-----------------|--3-----------------|---------------------|
     C|--------------------|--------------------|---------------------|
     G|--------------------|--------------------|---------------------|        
I wanna boy      to keep the bed warm    while I shower

     A|--------------------|--------------------|--3-------0----------|
     E|--1-----------------|--3-----------------|---------------------|
     C|--------------------|--------------------|---------------------|
     G|--------------------|--------------------|---------------------|
I wanna boy      to keep the bed warm while we're watching tv

     A|--------------------|--------------------|----3---2---1---0----|
     E|--1-----------------|--3-----------------|---------------------|
     C|--------------------|--------------------|---------------------|
     G|--------------------|--------------------|---------------------| 
I wanna boy     to keep the bed warm     When the whole house is freezing

     A|--------------------|--------------------|--3------------------|
     E|--1-----------------|--3-----------------|---------------------|
     C|--------------------|--------------------|---------------------|
     G|--------------------|--------------------|---------------------|         
I wanna boy       who isn't anything               like me


        F               G              C       Am
I wanna boy who doesn't like to go out shopping
         F                   G           C        Am
I wanna boy who thinks it's sexy when my lipstick bleeds
         F              G                C       Am
I wanna boy who can go all night without stopping
         F               G              C
I wanna boy who knows exactly what he needs


     A|----------------------------------|--------------------------------|
     E|----------------------------------|------------------------3-3-3-3-|
     C|----------0-----0-2-4-0-----4-4-2-|----------0------0-2-0----------| 
     G|-0-2-2-4----4-4----------0--------|-0-2-2-4----4-4-----------------| 

     A|----------------------------------|--------------------------------|
     E|----------------------------------|--------------------------------|
     C|----------0-----0-2-4-0-----4-4-2-|----------0------0-2-0----------| 
     G|-0-2-2-4----4-4----------0--------|-0-2-2-4----4-4-----------------|  
 

           F
So if you think
                 G
That you're the boy for me
     C               Am
And I'm the boy for you
           F         G     C    Am
Drop me a line at ob8419@bard.edu
           F          G
Tell me little bit about yourself
          C       Am
Send a picture or two
           F
And hurry up now because
      G             C
It's only getting colder


     A|----------------------------------|--------------------------------|
     E|----------------------------------|------------------------3-3-3-3-|
     C|----------0-----0-2-4-0-----4-4-2-|----------0------0-2-0----------| 
     G|-0-2-2-4----4-4----------0--------|-0-2-2-4----4-4-----------------|

     A|----------------------------------|--------------------------------|
     E|----------------------------------|--------------------------------|
     C|----------0-----0-2-4-3-2-1-------|----------0------0-2-0----------| 
     G|-0-2-2-4----4-4-------------------|-0-2-2-4----4-4-----------------|
Suggest correction
Give kudos to tab author, rate the tab!
1 2 3 4 5
comments
print report bad tab
guest
You may want to rate the tab now too:
select rating
Wanna post a correction for this tab? Suggest correction