Oops, an error
Loading. Please wait.

Lol tab

418 views 3 this week
no commentswrite comment
1 2 3 4 5
2 more votes to show rating
add to favorites
×
Save as Personal and add changes to this tab that will be seen only by you. Learn more ›
×
You can save this tab as Personal to edit and correct it or add notes. All changes will be seen only by you. Learn more »
launch autoscroll
font size
0
reset
how to read this tab
guitar tuner
edit
Autoscroll
slow
fast
+/-
esc
set tempo
stop
[Verse]
E |---0--------0--------0--------0---------------------------------------------|
B |---0--------0--------0--------0---------------------------------------------|
G#|---0--------0--------0--------0---------------------------------------------|
E |---0--------0--------0--------0---------------------------------------------|
B |---0-7h-/9--0-7h-/9--0-7h-/9--4---------------------------------------------|
E |---0--------0--------0--------4---------------------------------------------| (4x)
I know that I'm always wrong
Laughing at me, you were laughing along
I didn't know you could take such a shape

[Verse]
E |---0--------0--------0--------0---------------------------------------------|
B |---0--------0--------0--------0---------------------------------------------|
G#|---0--------0--------0--------0---------------------------------------------|
E |---0--------0--------0--------0---------------------------------------------|
B |---0-7h-/9--0-7h-/9--0-7h-/9--4---------------------------------------------|
E |---0--------0--------0--------4---------------------------------------------| (4x)
I know that I am naive
And when I see you, my heart is 19
I didn't know you could take such a shape

[Pre-Chorus]
E |--2------0------5------0------------------------------------------------------------|
B |--2------0------5------0------------------------------------------------------------|
G#|--2------2------5------0------------------------------------------------------------|
E |--2------0------5------0------------------------------------------------------------|
B |--2------2------5------0------------------------------------------------------------|
E |--2------2------5------0------------------------------------------------------------| (2x)

You know many things break
I don't know what to say
E |--0------5------0------0------------------------------------------------------------|
B |--0------5------0------0------------------------------------------------------------|
G#|--0------5------0------0------------------------------------------------------------|
E |--0------5------0------0------------------------------------------------------------|
B |--0------5------0------0------------------------------------------------------------|
E |--0------5------0------0------------------------------------------------------------| 

Ooh, ooh
E |--0------0------0------0------------------------------------------------------------|
B |--0------0------0------0------------------------------------------------------------|
G#|--0------0------0------0------------------------------------------------------------|
E |--0------0------0------0------------------------------------------------------------|
B |--0------0------4------0------------------------------------------------------------|
E |--0------0------4------0------------------------------------------------------------| 

[Verse]
E |---0--------0--------0--------0---------------------------------------------|
B |---0--------0--------0--------0---------------------------------------------|
G#|---0--------0--------0--------0---------------------------------------------|
E |---0--------0--------0--------0---------------------------------------------|
B |---0-7h-/9--0-7h-/9--0-7h-/9--4---------------------------------------------|
E |---0--------0--------0--------4---------------------------------------------| (4x)
I know that I'm always wrong
Laughing at me, I thought I belonged
I didn't know you could take such a shape

[Verse]
E |---0--------0--------0--------0---------------------------------------------|
B |---0--------0--------0--------0---------------------------------------------|
G#|---0--------0--------0--------0---------------------------------------------|
E |---0--------0--------0--------0---------------------------------------------|
B |---0-7h-/9--0-7h-/9--0-7h-/9--4---------------------------------------------|
E |---0--------0--------0--------4---------------------------------------------| (4x)
I know that I am naive
When you are queer, you are always 19
I didn't know you could take such a shape

[Pre-Chorus]
E |--2------0------5------0------------------------------------------------------------|
B |--2------0------5------0------------------------------------------------------------|
G#|--2------2------5------0------------------------------------------------------------|
E |--2------0------5------0------------------------------------------------------------|
B |--2------2------5------0------------------------------------------------------------|
E |--2------2------5------0------------------------------------------------------------| (2x)
You know many things break
I don't know what to say

[Chorus]
E |---0------0-----0-----0----------------------------------------------------|
B |---0------0-----0-----0----------------------------------------------------|
G#|---0------0-----0-----0----------------------------------------------------|
E |---4------5-----2-----0----------------------------------------------------|
B |---4------5-----2-----0----------------------------------------------------|
E |---4------5-----2-----0----------------------------------------------------| (4x)
So I'm laughing out loud
Laughing out loud, laughing out loud
Laughing out loud

            
            
Suggest correction
Creating personal tab
Creating personal tab
You can edit any tab online and save it as your Personal.

You can edit, replace or remove any tab part or add personal notes – all changes will be seen only by you.

Personal tabs can be accessed anytime from any device, even offline.
Learn more »
Give kudos to tab author, rate the tab!
1 2 3 4 5
comments
print report bad tab
guest
You may want to rate the tab now too:
select rating
Wanna post a correction for this tab? Suggest correction