Oops, an error
Loading. Please wait.

Ugly Cherries intro tab

version 1
version 1

Intro

Whole song

9,082 views 21 this week
no commentswrite comment
1 2 3 4 5
x 8
add to favorites
×
Save as Personal and add changes to this tab that will be seen only by you. Learn more ›
×
You can save this tab as Personal to edit and correct it or add notes. All changes will be seen only by you. Learn more »
launch autoscroll
font size
0
reset
how to read this tab
guitar tuner
edit
Autoscroll
slow
fast
+/-
esc
set tempo
stop
This tab is from the Ugly Cherries performance from the NPR Music Tiny Desk Concert.

[Intro]

e|-------------------------------------------------------------------------------|
B|-------------------------------------------------------------------------------|
G#|------------------------------------------------------------------------------|
E|----------------------------9h10p9p5---------12-----9h10p9p5-------------------|
B|-------------10h12p10--------------9h10p5-------10-------------10h12p5---------|
E|--5h10h12--------------------------------------------------------------------5-|

e|-------------------------------------------------------------------------------|
B|-------------------------------------------------------------------------------|
G#|------------------------------------------------------------------------------|
E|----------------------------9h10p9p5---------12-----9h10p9p5-------------------|
B|-------------10h12p10--------------9h10p5-------10-------------10h12p5---------|
E|--5h10h12--------------------------------------------------------------------5-|

e|-------------------------------------------------------------------------------|
B|-------------------------------------------------------------------------------|
G#|------------------------------------------------------------------------------|
E|----------------------------9h10p9p5---------12-----9h10p9p5-------------------|
B|-------------10h12p10--------------9h10p5-------10-------------10h12p5---------|
E|--5h10h12--------------------------------------------------------------------5-|

e|-------------------------------------------------------------------------------|
B|-------------------------------------------------------------------------------|
G#|------------------------------------------------------------------------------|
E|----------------------------9h10p9p5---------12-----9h10p9p5-------------------|
B|-------------10h12p10--------------9h10p5-------10-------------10h12p5---------|
E|--5h10h12--------------------------------------------------------------------5-|


************************************
| h   Hammer-on
| p   Pull-off
| /   Slide up
| \   Slide down
************************************

            
            
Suggest correction
Creating personal tab
Creating personal tab
You can edit any tab online and save it as your Personal.

You can edit, replace or remove any tab part or add personal notes – all changes will be seen only by you.

Personal tabs can be accessed anytime from any device, even offline.
Learn more »
comments
print report bad tab
guest
Wanna post a correction for this tab? Suggest correction