Oops, an error
Loading. Please wait.

Ugly Cherries tab

version 1
version 1

Whole song

6,733 views 27 this week
no commentswrite comment
1 2 3 4 5
1 last vote to show rating
add to favorites
×
Save as Personal and add changes to this tab that will be seen only by you. Learn more ›
×
You can save this tab as Personal to edit and correct it or add notes. All changes will be seen only by you. Learn more »
launch autoscroll
font size
0
reset
how to read this tab
guitar tuner
edit
Autoscroll
slow
fast
+/-
esc
set tempo
stop
Author
During all of the power chords, you can hit open B and E strings

[Intro]

e|-------------------------------------------------------------------------------|
B|-------------------------------------------------------------------------------|
G|------------------------------------------------------------------------------|
D|----------------------------9h10p9p5------------12-----9h10p9p5----------------|
A|-------------10h11/12p10--------------9/10p5-------10------------9h10h12p5-----|
E|--5h10h12--------------------------------------------------------------------5-|

e|---------------------------------------------------------------------------------|
B|---------------------------------------------------------------------------------|
G|--------------------------------------------------------------------------------|
D|----------------------------9h10p9p5------------12-----9h10p9p5------------------|
A|-------------10h11/12p10--------------9/10p5-------10------------9h10h12p5-----5-|
E|--5h10h12--------------------------------------------------------------------5---|

e|-------------------------------------------------------------------------------|
B|-------------------------------------------------------------------------------|
G|-------------------------------------------------------------------------------|
D|----------------------------9h10p9p5------------12-----9h10p9p5----------------|
A|-------------10h11/12p10--------------9/10p5-------10------------9h10h12p5-----|
E|--5h10h12--------------------------------------------------------------------5-|

e|------------------------------------------------------------------------------|
B|------------------------------------------------------------------------------|
G|------------------------------------------------------------------------------|
D|----------------------------9h10p9p5------------12-----9h10p9p5------5--------|
A|-------------10h11/12p10--------------9/10p5-------10----------------5--------|
E|--5h10h12------------------------------------------------------------5--------|

e|-5--5--5-5-5-5--5/5--5--5--5--5---5-/5--5--5--5--5--5---5-\5--5--5--5--5--5---7+7+7+|
B|-5--5--5-5-5-5--5/5--5--5--5--5---5-/5--5--5--5--5--5---5-\5--5--5--5--5--5---7+7+7+|
G|-6--6--6-6-6-6--6/11-11-11-11-11--11/13-13-13-13-13-13--13\11-11-11-11-11-11--7+7+7+|
D|-7--7--7-7-7-7--7/12-12-12-12-12--12/14-14-14-14-14-14--14\12-12-12-12-12-12--7+7+7+|
A|-7--7--7-7-7-7--7/12-12-12-12-12--12/14-14-14-14-14-14--14\12-12-12-12-12-12--7+7+7+|
E|-5--5--5-5-5-5--5/10-10-10-10-10--10/12-12-12-12-12-12--12\10-10-10-10-10-10--7+7+7+|

Same thing, but instead of going back to the power chord on the 8th fret,

e|5-/5-/5-/5--------------------------------------|
B|5-/5-/5-/5--------------------------------------|
G|11/12/13/11-------------------------------------|
D|12/13/14/12-------------------------------------|
A|12/13/14/12-------------------------------------|
E|10/11/12/10-------------------------------------|


[Verse]

e|--x-------x-----------x-----------x-----------------|
B|--x-------x-----------x-----------x-----------------|
G|--x-------x-----------x-----------x-----------------|
D|--x-7-7-7-x--12-12-12-x--14-14-14-x-12-12-12--------|
A|--x-7-7-7-x--12-12-12-x--14-14-14-x-12-12-12--------|
E|--x-5-5-5-x--10-10-10-x--12-12-12-x-10-10-10--------|

Same thing as the end of the end of the intro for the little end of the verse.


[Outro]

Starts as tabbed, but is the same as the intro.

e|--x-5------------------------------------------------------------------------|
B|--x-12------------------------------------------------------------------------|
G|--x-13------------------------------------------------------------------------|
D|--x-14------------------------------------------------------------------------|
A|--x--x-----------------------------------------------------------------------|
E|--x--x-----------------------------------------------------------------------|
Play that and the intro once and then play
e|---------------------------------------------------------------------------|
B|---10b10b------------------------------------------------------------------|
G|---13b13b------------------------------------------------------------------|
D|---------------------------------------------------------------------------|
A|---------------------------------------------------------------------------|
E|---------------------------------------------------------------------------| 
It ends on a harmonic on the 12 fret of the G string.



************************************

| x  Dead note
| h  Hammer-on
| p  Pull-off
| b  Bend
| /  Slide up
| \  Slide down
| +  Harmonic

************************************
Suggest correction
Creating personal tab
Creating personal tab
You can edit any tab online and save it as your Personal.

You can edit, replace or remove any tab part or add personal notes – all changes will be seen only by you.

Personal tabs can be accessed anytime from any device, even offline.
Learn more »
Give kudos to tab author, rate the tab!
1 2 3 4 5
comments
print report bad tab
guest
You may want to rate the tab now too:
select rating
Wanna post a correction for this tab? Suggest correction