Oops, an error
Loading. Please wait.

Song For Bobby tab

by Pyramid
13 views 1 this week
no commentswrite comment
1 2 3 4 5
3 more votes to show rating
add to favorites
×
Save as Personal and add changes to this tab that will be seen only by you. Learn more ›
×
You can save this tab as Personal to edit and correct it or add notes. All changes will be seen only by you. Learn more »
launch autoscroll
font size
0
reset
how to read this tab
guitar tuner
edit
Autoscroll
slow
fast
+/-
esc
set tempo
stop
[Intro]
e|---------------------------------7-----------------------------------------|
B|---5---5---5-5---5---5----5--5---8-----------------------------------------|
G|---5---5---5-5---5---5----5--5---7-----------------------------------------|
D|---9---9---9-9---9---9----7--7---9-----------------------------------------| x3
A|--------------------------5--5---7-----------------------------------------|
E|---5---5---5-5---5---5-----------------------------------------------------|

e|------------------------------------------------------------------|
B|---5---5---5-5---5---5-------------------5~-----------------------|
G|---5---5---5-5---5---5------7-9-10-9-7---5~-----------------------|
D|---9---9---9-9---9---9----7-x-x-x--x-x---9~-----------------------|
A|--------------------------x-5-7-8--7-5----------------------------|
E|---5---5---5-5---5---5----5--------------5~-----------------------|

[Chorus]
e|---------------------------------------------------------------------------|
B|----------------/13-12-13-15--11/12----8-10-------------------8------------|
G|--9-9h10p9p8h9----------------------\9----------7-5-9-7-5---5---7/9--------|
D|----------------------------------------------------------7----------------|
A|---------------------------------------------------------------------------|
E|---------------------------------------------------------------------------|

e|---------------------------------------------------------------------------|
B|----------------/13-12-13-15--11/12----8-10--------------------------------|
G|--9-9h10p9p8h9----------------------\9----------7-5-9-7-5---5--------------|
D|----------------------------------------------------------7---5-5/7--------|
A|---------------------------------------------------------------------------|
E|---------------------------------------------------------------------------|

e|---------------------------------------------------------------------------|
B|----------------/13-12-13-15--11/12----8-10-------------------8------------|
G|--9-9h10p9p8h9----------------------\9----------7-5-9-7-5---5---7/9--------|
D|----------------------------------------------------------7----------------|
A|---------------------------------------------------------------------------|
E|---------------------------------------------------------------------------|

e|---------------------------------------------------------------------------|
B|----------------/13-12-13-15--11/12----8-10--------------------------------|
G|--9-9h10p9p8h9----------------------\9----------7-5-9-7-5---5--------------|
D|----------------------------------------------------------7---5-5/7--------|
A|---------------------------------------------------------------------------|
E|---------------------------------------------------------------------------|

[Bridge]
  Guitar 1 - Lead
e|-----------------10-12-12-10--------------------------------15--12~--------|
B|--13p10----10-13-------------13-10----10-----------------15----------------|
G|--------12-------------------------------12-9-12-----/14-------------------|
D|---------------------------------------------------------------------------|
A|---------------------------------------------------------------------------|
E|---------------------------------------------------------------------------|

  Guitar 2 - Rhythm
e|---------------------------------------------------------------------------|
B|--------------------5-----3--2--1---3--1----------3------------------------|
G|--------------------5-----4--3--2---2--2----------4------------------------|
D|--------------------5-----4--3--2---3--2----------5------------------------|
A|------------------------------------2--0----------x------------------------|
E|--------------------5-----3--2--1-----------------3------------------------|

[Verse]
e|---------------------------------7-----------------------------------------|
B|---5---5---5-5---5---5----5--5---8-----------------------------------------|
G|---5---5---5-5---5---5----5--5---7-----------------------------------------|
D|---9---9---9-9---9---9----7--7---9-----------------------------------------| x3
A|--------------------------5--5---7-----------------------------------------|
E|---5---5---5-5---5---5-----------------------------------------------------|

e|------------------------------------------------------------------|
B|---5---5---5-5---5---5-------------------5~-----------------------|
G|---5---5---5-5---5---5------7-9-10-9-7---5~-----------------------|
D|---9---9---9-9---9---9----7-x-x-x--x-x---9~-----------------------|
A|--------------------------x-5-7-8--7-5----------------------------|
E|---5---5---5-5---5---5----5--------------5~-----------------------|

[Chorus 2]
e|---------------------------------------------------------------------------|
B|----------------/13-12-13-15--11/12----8-10-------------------8------------|
G|--9-9h10p9p8h9----------------------\9----------7-5-9-7-5---5---7/9--------|
D|----------------------------------------------------------7----------------|x3
A|---------------------------------------------------------------------------|
E|---------------------------------------------------------------------------|

e|---------------------------------------------------------------------------|
B|----------------/13-12-13-15--11/12----8-10--------------------------------|
G|--9-9h10p9p8h9----------------------\9----------7-5-9-7-5---5--------------|
D|----------------------------------------------------------7---5-5/7--------|
A|---------------------------------------------------------------------------|
E|---------------------------------------------------------------------------|

e|---------------------------------------------------------------------------|
B|----------------/13-12-13-15--11/12----8-10-------------------8------------|
G|--9-9h10p9p8h9----------------------\9----------7-5-9-7-5---5---7/9--------|
D|----------------------------------------------------------7----------------|x3
A|---------------------------------------------------------------------------|
E|---------------------------------------------------------------------------|

e|---------------------------------------------------------------------------|
B|----------------/13-12-13-15--11/12----8-10--------------------------------|
G|--9-9h10p9p8h9----------------------\9----------7-5-9-7-5---5--------------|
D|----------------------------------------------------------7---5-5/7--------|
A|---------------------------------------------------------------------------|
E|---------------------------------------------------------------------------|

[Bridge]
  Guitar 1 - Lead
e|-----------------10-12-12-10--------------------------------15--12~--------|
B|--13p10----10-13-------------13-10----10-----------------15----------------|
G|--------12-------------------------------12-9-12-----/14-------------------|
D|---------------------------------------------------------------------------|
A|---------------------------------------------------------------------------|
E|---------------------------------------------------------------------------|

  Guitar 2 - Rhythm
e|---------------------------------------------------------------------------|
B|--------------------5-----3--2--1---3--1----------3------------------------|
G|--------------------5-----4--3--2---2--2----------4------------------------|
D|--------------------5-----4--3--2---3--2----------5------------------------|
A|------------------------------------2--0----------x------------------------|
E|--------------------5-----3--2--1-----------------3------------------------|

[Solo]
e|---12-15----12-------------------------------------------------------------|
B|---------15----13-15-12~---------------------------------------------------|
G|--------------------------12-14----12--------------------------------------|
D|--------------------------------14----12---10-12----10-9-------------------|
A|-------------------------------------------------14------10----------------|
E|------------------------------------------------------------12\------------|

e|------------------------------------10\9-----------------------------------|
B|----------------------9-10-11-12-13------13\12/13--------------------------|
G|--12-11-10-9-10-11-12------------------------------------------------------|
D|---------------------------------------------------------------------------|
A|---------------------------------------------------------------------------|
E|---------------------------------------------------------------------------|

e|--------16-19-17-15\12-------------15--------------------------------------|
B|-----17----------------13h17-13h15-----------------------------------------|
G|--17-----------------------------------------14-------12-------------------|
D|------------------------------------------------14-------14----------------|
A|---------------------------------------------------------------------------|
E|---------------------------------------------------------------------------|

e|--------------------------------------------15-17-19-20-22--/19---15-------|
B|------12-13-15--10/12--------------13-15-17--------------------------15----|
G|---14-----------------14--12-14-16-----------------------------------------|
D|---------------------------------------------------------------------------|
A|---------------------------------------------------------------------------|
E|---------------------------------------------------------------------------|

e|------15------12------10--8------------------12-13-15-----------13-11------|
B|---17-17---13-13---12-12--10-------12-13-15--13-15-17--13------------------|
G|---17------14------12--------------12-14-16---------------12-13------------|
D|-----------------------------10--------------------------------------------|
A|---------------------------------------------------------------------------|
E|---------------------------------------------------------------------------|

[Chorus 3]
Intro chords play throughout, except everything up a semitone (1 fret)
e|---------------------------------------------------------------------------|
B|-------------------/14-13-14-16--12/13------9-11------------------9--------|
G|--10-10h11p10p9h10---------------------\10---------8-6-10-8-6---6---8/10---|
D|--------------------------------------------------------------8------------|
A|---------------------------------------------------------------------------| x3
E|---------------------------------------------------------------------------|

e|---------------------------------------------------------------------------|
B|-------------------/14-13-14-16--12/13------9-11---------------------------|
G|--10-10h11p10p9h10---------------------\10---------8-6-10-8-6---6----------|
D|--------------------------------------------------------------8---6-6/8----|
A|---------------------------------------------------------------------------|
E|---------------------------------------------------------------------------|

[Solo 2] - Trumpet solo in Bb concert pitch.
e|----------------------------------------------------------------------------|
B|---6---6---6--6---6---6----6--6---6~----------------------------------------|
G|---6---6---6--6---6---6----6--6---6~----------------------------------------|
D|---10--10--10-10--10--10---8--8---8~----------------------------------------| x8
A|---------------------------6--6---6~----------------------------------------|
E|---6---6---6--6---6---6-----------------------------------------------------|

[Outro]
e|---------------------------------------------|
B|---6---6---6--6---6---6----6--6---6~---------|
G|---6---6---6--6---6---6----6--6---6~---------|
D|---10--10--10-10--10--10---8--8---8~---------| x3
A|---------------------------6--6---6~---------|
E|---6---6---6--6---6---6----------------------|

e|---------------------------------------------|
B|---6---6---6--6---6---6----6--6---6~---------|
G|---6---6---6--6---6---6----6--6---6~---------|
D|---10--10--10-10--10--10---8--8---4~---------|
A|---------------------------6--6--------------|
E|---6---6---6--6---6---6-----------5~---------|

e|---------------------------------------------|
B|---6---6---6--6---6---6----6--6---6~---------|
G|---6---6---6--6---6---6----6--6---6~---------|
D|---10--10--10-10--10--10---8--8---8~---------|
A|---------------------------6--6---6~---------|
E|---6---6---6--6---6---6----------------------|

e|-----------------------------------|
B|---6---6---6--6---6---6------------|
G|---6---6---6--6---6---6------------|
D|---10--10--10-10--10--10-----------|
A|-----------------------------------|
E|---6---6---6--6---6---6------------|

e|--------------------------|
B|--6----6----6-------------|
G|--8----6----6-------------|
D|--8----8----10------------|
A|--6----6------------------|
E|------------6-------------|


************************************

| ~  Vibrato
| x  Dead note
| /  Slide up
| h  Hammer-on
| p  Pull-off
| \  Slide down

************************************

            
            
Suggest correction
Creating personal tab
Creating personal tab
You can edit any tab online and save it as your Personal.

You can edit, replace or remove any tab part or add personal notes – all changes will be seen only by you.

Personal tabs can be accessed anytime from any device, even offline.
Learn more »
Give kudos to tab author, rate the tab!
1 2 3 4 5
comments
print report bad tab
guest
You may want to rate the tab now too:
select rating
Wanna post a correction for this tab? Suggest correction