Oops, an error
Loading. Please wait.

Cool Jul Tab

7,297 views 3 this week
no commentswrite comment
1 2 3 4 5
excellent!
x 6
add to favorites
launch autoscroll
font size
0
reset
how to read this tab
guitar tuner
Autoscroll
slow
fast
+/-
esc
set tempo
stop
Help us to improve Ultimate-Guitar.com Take our survey!
×
Contributor

Pyrus
Cool Jul
Alletiders Julemand


intro:

e----------------------------------------|
B-----10-12-12b13--10-12b14-10-10-10-10--|
G-/11------------------------------------|
D----------------------------------------|
A----------------------------------------|
E----------------------------------------|

e---------------------------------------------|
B-----10-12-10-12b14-12b14r12-10----10-10-----|
G-/11----------------------------11-------11--|
D---------------------------------------------|
A---------------------------------------------|
E---------------------------------------------|

e-------------------12-----------------------|
B----10-12-10-12b14----12b14-10-12----10-----|
G-/11------------------------------11----11--|
D--------------------------------------------|
A--------------------------------------------|
E--------------------------------------------|


    A
På loftet sidder nissen
          E
hvorfor sidder han dog der?
F#m
Når det’ nede i stuen
          D
at det virkelig sjove sker.
      A
Et nisseliv er alt for
      E
forudsigeligt og trist.
F#m
Selv julemanden ligner
D                E
efterhånden en turist.
     F#m                H
De blide juletoner, kagemænd og koner,
     D                     D
er gamle traditioner men hvorfor
                  A                 H
ská julen altid ligne den vi havde sidst.

             A
Vi vil have gang i den, sang i den,
E                     F#m                    D
mer’ rama’sjang og tju’bang i den.
A                            E
Ud med nissehopsa, ud med nisseøl,
F#m                    D                 E
Ud med nisseskæg det alligevel fuld af møl

              A
Jeg vil have gang i den, klang i den,
E                          F#m               D
Mere fest og farver dagen lang i den
A                             E
Og hvorfor sku man kede sig, fordi det’ jul
D                      E          A
gør ligesom jeg, gør julen mere cooool

      A
Den lille nisse rejste ja
      E
men hvor gik turen hen
     F#m
vi nisser rejser altid ud
      D
men kommer hjem igen
     A
hvorfor er huen rød
            E
når den kú være violet
      F#m
og hvorfor er den spids
            D         E
når det kú være en kasket.
     F#m                          H
For min skyld ka i fjerne både juletræ og stjerne
         D
det er håbløst umoderne nej jeg
                  A                  H
vil hellere høre fed musik og danse tæt

             A
Vi vil have gang i den, sang i den,
E                     F#m                    D
mer’ rama’sjang og tju’bang i den.
A                            E
Ud med nissehopsa, ud med nisseøl,
F#m                    D                 E
Ud med nisseskæg det alligevel fuld af møl

              A
Jeg vil have gang i den, klang i den,
E                          F#m               D
Mere fest og farver dagen lang i den
A                             E
Og hvorfor sku man kede sig, fordi det’ jul
D                      E          A
gør ligesom jeg, gør julen mere cooool

C           G                    D                     A    C
Den jul vi har i dag tøffer af sted i alt for lavt et gear, jeg træder sømmet
       G              E
helt i bund imens jeg siger.

             A
Vi vil have gang i den, sang i den,
E                     F#m                    D
mer’ rama’sjang og tju’bang i den.
A                            E
Ud med nissehopsa, ud med nisseøl,
F#m                    D                 E
Ud med nisseskæg det alligevel fuld af møl

              A
Jeg vil have gang i den, klang i den,
E                          F#m               D
Mere fest og farver dagen lang i den
     D                         A
Og hvorfor sku man kede sig, fordi det’ jul
 H                     E          A
gør ligesom jeg, gør julen mere cooool


jeg er ikke helt færdig, men jeg kan lige så godt lægge det meste ud nu, så folk kan bruge det :)

her er nogle fill-ins, guitaren laver, og soloen :).

første omkvæd
"... ud med nisseskæg, det' alligevel fuld af møl"
e-----------------|
B-----------------|
G-----2-4b6-2-4~--|
D-2/4-------------|
A-----------------|
E-----------------|

"... mere fest og farve og dagen lang i den"
e-----------------|
B-(10)-12b14-10~--|
G-----------------|
D-----------------|
A-----------------|
E-----------------|

solo
e-------------------------------------------------------------------8--10b12-8-10-10b12-8~--|
B-7b8-7b8-7b8-7b8---------5--------------------------------8-10-8-10-10---------------------|
G-----------------(b5½)-7---5-------------5-7b9-7b9-5----9----------------------------------|
D------------------------------7-7~--5-7--------------7-------------------------------------|
A-------------------------------------------------------------------------------------------|
E-------------------------------------------------------------------------------------------|

andet vers
"... det ku' være en kasket"
e----------------------------|
B----------------------------|
G-4b6-2---2~--(4)~-(2)~-(2)--|
D-------4--------------------|
A----------------------------|
E----------------------------|

"... fed musik og danse tæt" går lige over i "jeg vil ha gang i den.."
e---------------------------       ----------------------------------------------------|
B-(b)7r5-3-2-5--------------       ----------------------------------------------------|
G--------------4---4b5-2----       -2-------------2---2-4b6r4-2-4b6-2--2---------------|
D----------------4-------4--       ---/4-2--4-/4----4--------------------/4-2---2-2h4--|
A---------------------------       -------------------------------------------4--------|
E---------------------------       ----------------------------------------------------|

e-----------------------------------------------------------------|
B-x-x-x-x-------------5-5-7-5-----10----------10-12b14-12-10--10--|
G-x-x-x-x-2-4b6r4-2--6---6---6--11--9-11-9--11--------------11----|
D-x-x-x-x---------------------------------------------------------|
A-x-x-x-x---------------------------------------------------------|
E-----------------------------------------------------------------|

e----------------------------------------------------------------------------------|
B---13--12--10---------------------------------------------------------------------|
G-11--11--11--11-11-9-9-----11-11--9-------------------------4b6-4b6r4-2-2-4-4b5~--|
D----------------------11-11-----11-9-11-9-7-------------7~-------------4----------|
A--------------------------------------------9-7-9-9-7-9---------------------------|
E----------------------------------------------------------------------------------|

c-del
"... tøffer afsted i alt for lavt et gear"
e---------------------------------|
B---------5-8-8/10~~-10/8-10-8-7--|
G------5-7------------------------|
D---5-7---------------------------|
A-/7------------------------------|
E---------------------------------|

".. træder sømmet helt i bund imens jeg sir'"
e----------------------|
B-12b14-10---10~--11/--|
G----------9-----9-----|
D----------------------|
A----------------------|
E----------------------|

"... sang i den mere ramasjang og tjubang i den"
e------------------------------------------------------|
B-12b14-12b14-12b14-12b14-12b14-12b14-12b14r10----10---|
G-----------------------------------------------11--9--|
D------------------------------------------------------|
A------------------------------------------------------|
E------------------------------------------------------|
comments
print report bad tab
I want to post or [tab]
guest
You may want to rate the tab now too:
select rating
Please do not post tabs as comments. Select "correction" instead!