Oops, an error
Loading. Please wait.

On A Winter Morning Tab

106 views 1 this week
no commentswrite comment
1 2 3 4 5
please rate
add to favorites
launch autoscroll
font size
0
reset
how to read this tab
guitar tuner
Autoscroll
slow
fast
+/-
esc
set tempo
stop
Help us to improve Ultimate-Guitar.com Take our survey!
×
=============================================================================
             PyThOn LeE jAcKsOn - On A wInTeR mOrNiNg
=============================================================================

TuNiNg: DCAFGFD

Intro:
|--------------------------|---------------------|
|----------------10-10-10--|-----------10-10-10--|
|----------------13-13-13--|-------x-x-13-13-13--|
|----------------11-11-11--|-------0-0-11-11-11--|
|-3-0-6-5-~~-----12-12-12--|-22-22-6-9-12-12-12--|
|-0-1-3-2-~~-6-7-10-10-12--|-22-21-9-6-10-10-12--|


Verse:

Gmaj#9             Eb#7
It was on a winter morning,

Dm#5        Am#9
When i went to town,

Fbadd9#        F/Gb
To buy a broomstick,

Dadd7
Which could fly,
 
        F#maj7/Dm             Dadd7
So that i could pretend to be harry potter,

 E7#9                    GmajaddAmaj#9/Fb
And i will get a wand to zzzzzaaaaaaaaaaapppp you with,

E7#9
HA! HA! HA! HA!

Chorus:
E       
It was a winter morning!

D                             F
It was a winter warning me to stop!

GmajaddAmaj#9mDnatural#fmb6#5/a#m
Yeeeeeeeeeeaaaaaaaaaaaaahhhhhhhhhhh!!!!!!!!!

Solo:

|-5---------------------------------------|
|--6------------12-13-14-15p3p2p1p0\/\/\--|
|---9-------3-~---------------------------|
|----5------2-x---------------------------|
|-----0--5b---x---------------------------|
|------2------x---------------------------|
Suggest correction
What's this?
You can suggest a correction to this tab. Community and Mods will review your correction and vote to approve or reject it.
comments
We did not receive enough feedback on this tab! Please rate:
print report bad tab
1 2 3 4 5
guest
You may want to rate the tab now too:
select rating
Please do not post tabs as comments. Select "correction" instead!