Oops, an error
Loading. Please wait.

Nine Things Everybody Knows Tab

1,360 views 1 this week
no commentswrite comment
1 2 3 4 5
x 3
add to favorites
launch autoscroll
font size
0
reset
how to read this tab
guitar tuner
×
Best way to learn
"Nine Things Everybody Knows"
Autoscroll
slow
fast
+/-
esc
set tempo
stop
Difficulty
intermediate
Nine things everybody knows - Q and not U
Tabbed by: Brian (paveddistance)
Email: frances_the_mute1@yahoo.com
Tuning:Standard

[Guitar 1]
[verse 1]
e|------------------1212121212-----------------------------------------------|
B|-------------1212------------121212----------------------------------------|
G|--999-121212------------------------99999-------77755----------------------|
D|------------------------------------------77755----------------------------|
A|---------------------------------------------------------------------------|
E|---------------------------------------------------------------------------|

[Guitar 2]
e|---------------------------------------------------------------------------|
B|----------/1212121212121212-10101010-8888----------------------------------|
G|---9(x48)------------------------------------------------------------------|
D|---------------------------------------------------------------------------|
A|---------------------------------------------------------------------------|
E|---------------------------------------------------------------------------|

[verse 2]
[guitar 1]
e|-0-------------------------------------------------------------------------|
B|-0-------------------------------------------------------------------------|
G|-0---------4---------------------------------------------------------------|
D|-0------5----5-------------------------------------------------------------|
A|-0--------------------------5--3-------------------------------------------|
E|-0-----------------------3-------------------------------------------------|

[Guitar 2 - same as verse 1]
[verse 3]
[guitar 1]
e|--10-------listen for pattern----------------------------------------------|
B|--13-----------------------------------------------------------------------|
G|--14-----------------------------------------------------------------------|
D|---------------------------------------------------------------------------|
A|---------------------------------------------------------------------------|
E|---------------------------------------------------------------------------|

guitar 2- sounds like muted fast picking on G----14--14----12---12

[verse 4]
[Guitar1]
e|---------------------------------------------------------------------------|
B|---------------------------------------------------------------------------|
G|---------------------------------------------------------------------------|
D|--------------------------------------1212121212121212-1010101010101010----|
A|--131313131313131313-1212121212121212--------------------------------------|
E|---------------------------------------------------------------------------|

[Guitar 2]
e|---------------------------------------------------------------------------|
B|-13--listen for how much------------------------------------------|
G|---------------------------------------------------------------------------|
D|---------------------------------------------------------------------------|
A|---------------------------------------------------------------------------|
E|---------------------------------------------------------------------------|

[verse 1 again]

[verse 3 again]

[verse 5]

G---9-- let it ring

[Guitar 1]
e|--------------------------------121212-------------------------------------|
B|---------12------------12-------------121212-1010--------------------------|
G|---9------------9----------------------------------------------------------|
D|---------------------------------------------------------------------------|
A|---------------------------------------------------------------------------|
E|---------------------------------------------------------------------------|

[Guitar 2]
e|-----12----17---12----17-----------15--------------------------------------|
B|--------------------------------------15-----------------------------------|
G|--------------------------------14-------14--------------------------------|
D|---------------------------------------------------------------------------|
A|---------------------------------------------------------------------------|
E|---------------------------------------------------------------------------|

[slow part]
e|---------------------------------------------------------------------------|
B|------12----12-------------------------------------------------------------|
G|----9----12----------------------------------------------------------------|
D|---------------------------------------------------------------------------|
A|---------------------------------------------------------------------------|
E|---------------------------------------------------------------------------|

************************************

| /  Slide up

************************************
Suggest correction
Give kudos to tab author, rate the tab!
1 2 3 4 5
comments
print report bad tab
guest
You may want to rate the tab now too:
select rating
Wanna post a correction for this tab? Suggest correction