Oops, an error
Loading. Please wait.

Lo Que Tus Sueños Cuentan Bass Tab

by QBO
45 views 1 this week
no commentswrite comment
1 2 3 4 5
3 more votes to show rating
add to favorites
launch autoscroll
font size
0
reset
guitar tuner
Autoscroll
slow
fast
+/-
esc
set tempo
stop
Help us to improve Ultimate-Guitar.com Take our survey!
×
G-------------------------------------------------------------------|
 D-------------------------------------------------------------------|
 A-------------------------------------------------------------------| X2
 E-------------------------------------------------------------------|
 B--000--3---00000--0---5---0000----1/2------------------------------|


 G-------------------------------------------------------------------|
 D------------------------55555---4--3333--222-----------------------|
 A-------------------------------------------------------------------| X2
 E-------------------------------------------------------------------|
 B--00-333-00--333--00-----------------------------------------------|

 G-------------------------------------------------------------------|
 D-------------------------------------------------------------------|
 A-------------------------------------------------------------------| X1
 E-------------------------------------------------------------------|
 B---000--3---00000--0----5-0000----1/2------------------------------|

 G-------------------------------------------------------------------|
 D-------------------------55555---4---3333--222---------------------|
 A-------------------------------------------------------------------| X2
 E-------------------------------------------------------------------|
 B---00--333--00--333--00--------------------------------------------|

    CORO

 G-------------------------------------------------------------------|
 D-------------------------------------------------------------------|
 A-------------------------------------------------------------------| X2
 E-----------22222222-----------55555555-----------------------------|
 B--00000000-----------22222222--------------------------------------|

 G-------------------------------------------------------------------|
 D--------------------------55555--4----3333---222-------------------|
 A-------------------------------------------------------------------|
 E-------------------------------------------------------------------|
 B--00--333---00--333--00--------------------------------------------|

REPITE CORO

 G-------------------------------------------------------------------|
 D----------------------------55555--4---3333---222------------------|
 A-------------------------------------------------------------------| X4
 E-------------------------------------------------------------------|
 B--00--333---00---333---00------------------------------------------|

 REPITE EL INTRO CON LA PARTE DE LA GUITARRA SOLA
Y EL FINAL 4 VECES POR CORO

ESO ES TODO
AHI SE VEN BANDA
Suggest correction
Give kudos to tab author, rate the tab!
1 2 3 4 5
comments
print report bad tab
guest
You may want to rate the tab now too:
select rating
Wanna post a correction for this tab? Suggest correction