Oops, an error
Loading. Please wait.

Lo Que Tus Sueños Cuentan Tab

version 2
version 2

Whole song

by QBO
20 views 1 this week
no commentswrite comment
1 2 3 4 5
3 more votes to show rating
add to favorites
launch autoscroll
font size
0
reset
how to read this tab
guitar tuner
Autoscroll
slow
fast
+/-
esc
set tempo
stop
Help us to improve Ultimate-Guitar.com Take our survey!
×
Aqui esta esta super rola esta muy sencilla
chekenla.................

Intro......
----------10-10-9-10-9-----------------10-10-9-10-9------------------
------------------------10---------------------------10--------------
----------------------------11-11-11-11------------------11-11--9----
---------------------------------------------------------------------
---------------------------------------------------------------------
---------------------------------------------------------------------

---------------------------------------------------------------------
---------------------------------------------------------------------
---------------------------------------------------------------------
---------------------------------------------------------------------
------2-0-0-3-0-0-2-0-0-5-0-0-2-0-0-3-0-0-2-0-0-1-0-0----------------
------2-0-0-3-0-0-2-0-0-5-0-0-2-0-0-3-0-0-2-0-0-1-0-0----------------

No encuentras salidas..............
---------------------------------------------------------------------
---------------------------------------------------------------------
---------------------------------------------------------------------
---------------------------------------------------------------------
------0-0-2-0-0-3-3-2----0-0-2-0-0-3-3-2-3-3-2--0-0-2-0-0-3-3-2--------8-8-7-7-7-7-5-5-5-5-5-5-----
------0-0-2-0-0-3-3-2----0-0-2-0-0-3-3-2-3-3-2--0-0-2-0-0-3-3-2--------8-8-7-7-7-7-5-5-5-5-5-5-----

---------------------------------------------------------------------
---------------------------------------------------------------------
---------------------------------------------------------------------
---------------------------------------------------------------------
------2-0-0-3-0-0-2-0-0-5-0-0-2-0-0-3-0-0-2-0-0-1-0-0----------------
------2-0-0-3-0-0-2-0-0-5-0-0-2-0-0-3-0-0-2-0-0-1-0-0----------------

Ahora el silencio...........
---------------------------------------------------------------------
---------------------------------------------------------------------
---------------------------------------------------------------------
---------------------------------------------------------------------
------0-0-2-0-0-3-3-2----0-0-2-0-0-3-3-2-3-3-2--0-0-2-0-0-3-3-2--------8-8-7-7-7-7-5-5-5-5-5-5-----
------0-0-2-0-0-3-3-2----0-0-2-0-0-3-3-2-3-3-2--0-0-2-0-0-3-3-2--------8-8-7-7-7-7-5-5-5-5-5-5-----

CORO:
Bueno el coro no se si este bien pero se escucha bien chekenlo..........
--------3-3-3-3-3----------------------------------------------------------------
--------3-3-3-3-3----------------------------------------------------------------
--------------------5-5-5-5-5-5-5-5-----3-3-3-3-3-3-3-3-----5-5-5-5-5-5-5-5------
--2-2-2-2-2-2-2-2---5-5-5-5-5-5-5-5-----3-3-3-3-3-3-3-3-----5-5-5-5-5-5-5-5------
--2-2-2-2-2-2-2-2---3-3-3-3-3-3-3-3-----1-1-1-1-1-1-1-1-----3-3-3-3-3-3-3-3------
--0-0-0-0-0-0-0-0----------------------------------------------------------------

Me dices que un tiempo...............
---------------------------------------------------------------------
---------------------------------------------------------------------
---------------------------------------------------------------------
---------------------------------------------------------------------
------0-0-2-0-0-3-3-2----0-0-2-0-0-3-3-2-3-3-2--0-0-2-0-0-3-3-2--------8-8-7-7-7-7-5-5-5-5-5-5-----
------0-0-2-0-0-3-3-2----0-0-2-0-0-3-3-2-3-3-2--0-0-2-0-0-3-3-2--------8-8-7-7-7-7-5-5-5-5-5-5-----

Coro:
--------3-3-3-3-3----------------------------------------------------------------
--------3-3-3-3-3----------------------------------------------------------------
--------------------5-5-5-5-5-5-5-5-----3-3-3-3-3-3-3-3-----5-5-5-5-5-5-5-5------
--2-2-2-2-2-2-2-2---5-5-5-5-5-5-5-5-----3-3-3-3-3-3-3-3-----5-5-5-5-5-5-5-5------
--2-2-2-2-2-2-2-2---3-3-3-3-3-3-3-3-----1-1-1-1-1-1-1-1-----3-3-3-3-3-3-3-3------
--0-0-0-0-0-0-0-0----------------------------------------------------------------

---------------------------------------------------------------------
---------------------------------------------------------------------
---------------------------------------------------------------------
--------2-2----------------------------------------------------------
--------2-2----------------------------------------------------------
--------0-0----------------------------------------------------------

Cuentan...............
---------------------------------------------------------------------
---------------------------------------------------------------------
---------------------------------------------------------------------
-2-2------5-----2-2-2-2-----2-2-2-2-----2-2-2-2-------2-2----5-------
-2-2------5-----2-2-2-2-----2-2-2-2-----2-2-2-2-------2-2----5-------
-0-0------3-----0-0-0-0--3~-0-0-0-0--3~-0-0-0-0--3~---0-0----3-------

Solo:
--------3-2-----------------------3-2--------------------------------
--------------3-5-----------------------3-5----------------3~~~~~~---
---------------------4~~~~~~------------------4~~~~~~---2------------
---------------------------------------------------------------------
---------------------------------------------------------------------
---------------------------------------------------------------------

--------3-2--------------5-----------5h7h5h5h7h5----3h5h3h3h5h3----1h3h1h1h3h1h1h3h1h1h3h1h----------
----------------3-----------5~~~~~~------------------------------------------------------------------
-----------------------------------------------------------------------------------------------------
-----------------------------------------------------------------------------------------------------
-----------------------------------------------------------------------------------------------------
-----------------------------------------------------------------------------------------------------

---------------------------------------------------------------------
---------------------------------------------------------------------
---------------------------------------------------------------------
----------9/////////////////////////////5----------------------------
----------9/////////////////////////////5----------------------------
----------7/////////////////////////////3----------------------------

Coro:
--------3-3-3-3-3----------------------------------------------------------------
--------3-3-3-3-3----------------------------------------------------------------
--------------------5-5-5-5-5-5-5-5-----3-3-3-3-3-3-3-3-----5-5-5-5-5-5-5-5------
--2-2-2-2-2-2-2-2---5-5-5-5-5-5-5-5-----3-3-3-3-3-3-3-3-----5-5-5-5-5-5-5-5------
--2-2-2-2-2-2-2-2---3-3-3-3-3-3-3-3-----1-1-1-1-1-1-1-1-----3-3-3-3-3-3-3-3------
--0-0-0-0-0-0-0-0----------------------------------------------------------------

Y termina en:
----------------------------------------------------------------------
----------------------------------------------------------------------
----------------------------------------------------------------------
-------------2-2------2-----------------------------------------------
-------------2-2------2-----------------------------------------------
-------------0-0------0-----------------------------------------------

Bueno ps eso es todo me tarde un chingo en sacarla pero bueno ahi la tienen...........

Dudas o comentario a mi e-mail..................
Suggest correction
Give kudos to tab author, rate the tab!
1 2 3 4 5
comments
print report bad tab
guest
You may want to rate the tab now too:
select rating
Wanna post a correction for this tab? Suggest correction