Oops, an error
Loading. Please wait.

No Mas Tab

version 5
version 5

Interactive

by QBO
670 views 1 this week
no commentswrite comment
1 2 3 4 5
3 more votes to show rating
add to favorites
launch autoscroll
font size
0
reset
how to read this tab
guitar tuner
Autoscroll
slow
fast
+/-
esc
set tempo
stop
Help us to improve Ultimate-Guitar.com Take our survey!
×
qbo: no mas : tab complete
-------------------------------------------------|
--2222-2222-22-2222-2222-------------------------|x2
-------------------------------------------------|
-------------------------3-----------------------| bass part
enter guitar
----------------------------3 o 3----------------|
-------------------------------------------------|
-------------------------------------------------|x2
-----2222 2222 22 2222 2222----------------------|
-----2222 2222 22 2222 2222----------------------|
-----0000 0000 00 0000 0000----------------------|

verse
---------------------------10--9--5--2-----------|
----------------------------------------3-2------|
-------------------------------------------------|  x3
-------------------------------------------------|
-------------------------------------------------|
-------------------------------------------------|

chorus
---------------------------------------------------3----3----3---3-|
---------------------------------------------------3----3----3---3-|
-----------5555----------------------------------------------------| x2
---2222----5555---5555----7777---------------------------------00--|
---2222----3333---5555----7777------------------------33-----------|
---0000-----------3333----5555-------------------00--------33------|

--------------------------------------------------------------------|
-------------------------------------------------88-----------------|
------------------------------------------------------77------------|
----------------------------------------------------------99--------|
--------------------------------------------------------------------|
--------------------------------------------------------------------|

REPEAT VERSE
--------------------------------------10--9--5-2--------|
-------------------------------------------------3-2----|
--------------------------------------------------------|  x2
--------------------------------------------------------|
--------------------------------------------------------|
--------------------------------------------------------|
PART 2
------------------------------------------|
------------------------------------------|
------------------------------------------|x2
--2-22-22-22-5----------------------------|
--2-22-22-22-5----------------------------|
--0 00 00 00 0----------------------------|
repeat chorus up
----------------------------------------------33---33----33-----33-----|
-----------------------------------------------------------------------|
----------555----------------------------------------------------------|   x2
----222---555--555--555-------------------------------------00---------|
----222---333--555--555--------------------------33--------------------|
----000--------333--777---------------------00---------33--------------|
yeahh
-------------------------303---------------------------|
-------------------------------------------------------|
-------------------------------------------------------|
---2222-2222-22-2222-2222--------2222-2222-22-2222--22-|
---2222-2222-22-2222-2222--------2222-2222-22-2222--22-|
---0000 0000 00 0000 0000--------0000-0000-00-0000--00-|

bass solo

chorus:
------------------------------------------- ----3------3------3------3-|
------------------------------------------- ----3------3------3------3-|
----------555------------------------------ ---------------------------|   x2
----222---555--555--555-------------------- ---------------------00----|
----222---333--555--555-------------------- -------33------------------|
----000--------333--777-------------------- -00-----------33-----------|
yeahh
---------------------------------------------|
---------------------------------------------|
----------555--------------------------------|   x2
----222---555--555--555----------------------|
----222---333--555--555----------------------|
----000--------333--777----------------------|
end
 --3---3----3--------3----------|
 --3---3----3--------3----------|
 -------------------------------|   x4
 ------------------00-----------|
 -----33------------------------|
 -00--------33------------------|
Suggest correction
Give kudos to tab author, rate the tab!
1 2 3 4 5
comments
print report bad tab
guest
You may want to rate the tab now too:
select rating
Wanna post a correction for this tab? Suggest correction