Oops, an error
Loading. Please wait.

No Mas Tab

version 6
version 6

Interactive

by QBO
697 views 1 this week
no commentswrite comment
1 2 3 4 5
please rate
add to favorites
launch autoscroll
font size
0
reset
how to read this tab
guitar tuner
Tab Pro tools
  • play this tab
  • loop segment
  • change instrument
  • show fretboard
  • metronome
×
Best way to learn
"No Mas"
Autoscroll
slow
fast
+/-
esc
set tempo
stop
qbo-no mas
poe jonathan ruiz
(jontodopoderoso6@hotmail.com


() natural harmonic
{} tapped harmonic


esta es la parte del bajo

G||----------------------------|---------------------------|
D||----------------------------|---------------------------|
A||--2-2-2-2---2-2-2-2---2-2---|--2-2-2-2---2-2-2-2--------|
E||----------------------------|---------------------------|
B||----------------------------|----------------------3----|

----------------------------|---------------------------|
----------------------------|---------------------------|
--2-2-2-2---2-2-2-2---2-2---|--2-2-2-2---2-2-2-2--------|
----------------------------|---------------------------|
----------------------------|----------------------3----|


Intro DIST.PALM MUTE

B |----------------------------|----------------------------------|
G |----------------------------|----------------------------------|
D |*---------------------------|----------------------------------|
A |*---------------------------|----------------------------------|
E |---0-0-0-0---0-0-0----0-0---|--0-0-0-0---0-0-0-----------------|
B |---0-0-0-0---0-0-0----0-0---|--0-0-0-0---0-0-0-0-(4)-0--0-(4)--|


Verso: Estos son armónicos :CLEAN
B--------------------------|---------------------------||------------------|
G--------------------------|---------------------------||------------------|
D--------------------------|--------------------------*||*--(5)------------|
A--------------------------|--------------------------*||*-----------------|
E-0-0-0-0---0-0-0----0-0---|--0-0-0-0---0-0-0-0--------||------------------|
B-0-0-0-0---0-0-0----0-0---|--0-0-0-0---0-0-0-0--------||------------------|


                                                                    2x
B------------------------|----------------------------|----------------------|
G-(7)--------------------|--(12)------{12}------------|----------------------|
D-------(7)--------{7}--|--------------------(12)----|--{12}-----------------|
A------------------------|----------------------------|----------------------|
E------------------------|----------------------------|----------------------|
B------------------------|----------------------------|----------------------|


DIST:CORO                                                                      x2

B--------------------------|--------------------------|--------3----------3-|
G--------------------------|--------------------------|--------3----------3-|
D--------------5--5--5--5--|--------------7--7--7--7--|---------------------|
A--2--2--2--2--5--5--5--5--|--5--5--5--5--7--7--7--7--|---------------------|
E--2--2--2--2--3--3--3--3--|--5--5--5--5--5--5--5--5--|-------------3--3----|
B--0--0--0--0--------------|--3--3--3--3--------------|--0--0---------------|


                            Verso: ESTOS SON ARMONICOS
B-------3----------3-----||-------------------|----------------------|
G-------3----------3-----||-------------------|--7-------------------|
D-----------------------*||--5----------------L-----7----------------|
A------------0--0-------*||-------------------|----------------------|
E------------------------||-------------------|----------------------|
B-3--3-------------------||-------------------|----------------------|

B-------------------|------------------||--------------------|
G-12----------------|------------------||--------------------|
D-------------------|------------------||*--5----------------|
A-------------------|------------------||*-------------------|
E-------------------|------------------||--------------------|
B-------------------|------------------||--------------------|


 CLEAN VERSE   x2
B--------------------|------------------------|---------------------||
G-7------------------|--12------12------------|---------------------||
D--------7--------7--|--------------------12--|--12----------------*||
A--------------------|------------------------|--------------------*||
E--------------------|------------------------|---------------------||
B--------------------|------------------------|---------------------||

Bridge:                                                         x1
B---------------------------|---------------------------|
G---------------------------|---------------------------|
D---------------------------|--------------------------*|
A--2-2-2-2---2-2-2----2-2---|--2-2-2-2---2-2-2-2-------*|
E--2-2-2-2---2-2-2----2-2---|--2-2-2-2---2-2-2-2---3----|
B--0-0-0-0---0-0-0----0-0---|--0-0-0-0---0-0-0-0---3----|

DIST:CORO

B--------------------------|--------------------------|--------3----------3-|
G--------------------------|--------------------------|--------3----------3-|
D--------------5--5--5--5--|--------------7--7--7--7--|---------------------|
A--2--2--2--2--5--5--5--5--|--5--5--5--5--7--7--7--7--|---------------------|
E--2--2--2--2--3--3--3--3--|--5--5--5--5--5--5--5--5--|-------------3--3----|
B--0--0--0--0--------------|--3--3--3--3--------------|--0--0---------------|

B-------3----------3-------|
G-------3----------3-------|
D--------------------------|
A------------0--0----------|
E--------------------------|
B-3--3---------------------|


B--------------------------|--------------------------|--------3----------3-|
G--------------------------|--------------------------|--------3----------3-|
D--------------5--5--5--5--|--------------7--7--7--7--|---------------------|
A--2--2--2--2--5--5--5--5--|--5--5--5--5--7--7--7--7--|---------------------|
E--2--2--2--2--3--3--3--3--|--5--5--5--5--5--5--5--5--|-------------3--3----|
B--0--0--0--0--------------|--3--3--3--3--------------|--0--0---------------|

B-------3----------3-----|
G-------3----------3-----|
D-----------------------*|
A------------0--0--------|
E------------------------|
B-3--3-------------------|

PUENTE 2

B |----------------------------|----------------------------------|
G |----------------------------|----------------------------------|
D |*---------------------------|----------------------------------|
A |*---------------------------|----------------------------------|
E |---0-0-0-0---0-0-0----0-0---|--0-0-0-0---0-0-0-----------------|
B |---0-0-0-0---0-0-0----0-0---|--0-0-0-0---0-0-0-0-(4)-0--0-(4)--|

B--------------------------|-----------------------------|
G--------------------------|-----------------------------|
D--------------------------|-----------------------------|
A--------------------------|-----------------------------|
E-0-0-0-0---0-0-0----0-0---|--0-0-0-0---0-0---0---0------|
B-0-0-0-0---0-0-0----0-0---|--0-0-0-0---0-0---0---0------|

EN ESTA PARTE ENTRA EL BAJO SOLO Y ESO VA AMS O MENOS ASI
X 2
G----------------------------------------------------------|
D----------------------------------------------------------|
A----------------------------------------------------------|
E----77777777----33333333----------------55555555----------|
B----------------------------33333333----------------------|
GUITARRA:DIST.

B--------------------------|--------------------------|--------3----------3-|
G--------------------------|--------------------------|--------3----------3-|
D--------------5--5--5--5--|--------------7--7--7--7--|---------------------|
A--2--2--2--2--5--5--5--5--|--5--5--5--5--7--7--7--7--|---------------------|
E--2--2--2--2--3--3--3--3--|--5--5--5--5--5--5--5--5--|-------------3--3----|
B--0--0--0--0--------------|--3--3--3--3--------------|--0--0---------------|

B-------3----------3-------|
G-------3----------3-------|
D--------------------------|
A------------0--0----------|
E--------------------------|
B-3--3---------------------|

B--------------------------|--------------------------|--------3----------3-|
G--------------------------|--------------------------|--------3----------3-|
D--------------5--5--5--5--|--------------7--7--7--7--|---------------------|
A--2--2--2--2--5--5--5--5--|--5--5--5--5--7--7--7--7--|---------------------|
E--2--2--2--2--3--3--3--3--|--5--5--5--5--5--5--5--5--|-------------3--3----|
B--0--0--0--0--------------|--3--3--3--3--------------|--0--0---------------|

B-------3----------3-------|
G-------3----------3-------|
D--------------------------|
A------------0--0----------|
E--------------------------|
B-3--3---------------------|

B--------------------------|--------------------------|
G--------------------------|--------------------------|
D--------------5--5--5--5--|--------------7--7--7--7--|
A--2--2--2--2--5--5--5--5--|--5--5--5--5--7--7--7--7--|
E--2--2--2--2--3--3--3--3--|--5--5--5--5--5--5--5--5--|
B--0--0--0--0--------------|--3--3--3--3--------------|

B--------------------------|--------------------------|
G--------------------------|--------------------------|
D--------------5--5--5--5--|--------------7--7--7--7--|
A--2--2--2--2--5--5--5--5--|--5--5--5--5--7--7--7--7--|
E--2--2--2--2--3--3--3--3--|--5--5--5--5--5--5--5--5--|
B--0--0--0--0--------------|--3--3--3--3--------------|
                     x4
|--------3----------3--        --------3----------3-----|
|--------3----------3--        --------3----------3-----|
|----------------------        ------------------------*|
|----------------------        -------------0--0-------*|
|-------------3--3-----        -------------------------|
|--0--0----------------        --3--3-------------------|
aqui esta ya ahi q hacerle sus arreglos creo yo?
aqui esta afinada en tres tonos mas abajo y luego,les mando en el tono E
comments
We did not receive enough feedback on this tab! Please rate:
print report bad tab
1 2 3 4 5
I want to post or [tab]
guest
You may want to rate the tab now too:
select rating
Please do not post tabs as comments. Select "correction" instead!